PrimaNota.ru - самый крупный в мире бесплатный архив песенных текстов, аккордов, табулатур и нот


Black Crowes - Spider In The Sugar Bowl Blues - таба, видео

Регистрация Запомнить меня
Войти через:  Facebook Google Twitter Vk Yandex Mail.ru

Black Crowes - Spider In The Sugar Bowl Blues - таба, видео

Печатать
Просмотров: 137
The Black Crowes
Song Title: Spider In The Sugar Bowl Blues
TBC Original? Yes
Written By: Chris and Rich Robinson
Recording Session: Unknown
Record: Never Released
Live Debut: 11/23/1996
Shows: 31 times played live
Notes: This was written on the 3 Snakes Fall Tour, originating as an instrumental jam on
in Kansas City. Throughout October and into November it was played as an intro to My
Song, Thorn In My Pride and Bring On, Bring On. It was recorded at Sound Of Music 
in Richmond, VA on 11/21/96 and debuted with lyrics on 11/23/96 in Charlotte. The studio
is played with acoustic guitars, similar to the arrangement that the band played at The 
on 2/22/97.

It was often played live on the Europe 97' and Furthur Tours and appeared on early
cassettes of Band, but did not appear on the version of the album submitted to their record
at the time. Like the other Sound Of Music recordings, the studio recording of Spider In 
Sugar Bowl Blues does not circulate in trading circles.

* the 31 performances indicated above includes instrumental performances.

---------------------------------
The above information was taken from www.crowesbase.com

Many thanks to MorningSong13 (who I'm assuming was a member on the old Amorica
for the verse/chorus tab for this song.

Tuning: DGDGBD (Open G), with a capo at the 3rd fret.  All notes are relative to the
 This song has been played by The Crowes without the capo, in which case you would just
the tab normally (all the notes would be in relation to the nut).


Intro:
D----------------------------------|
B------6---6-6----------5---5-5----|
G--5/7---7-----7----4/5---5-----5--| x3
D--0----------------0--------------|
G--0----------------0--------------|
D----------------------------------|

D----------------------|
B------5---5-5------0--|
G--4/5---5----------0--|
D--0-----------3----0--|
G--0----------------0--|
D----------------------|

Verse:
D------------------------------------------------|
B--8--10--12--13--10--12--10--8--10--13--13--12--|
G--0---0---0---0---0---0---0--0---0---0---0---0--|
D--9--10--12--13--10--12--10--9--10--13--13--12--|
G--0---0---0---0---0---0---0--0---0---0---0---0--|
D------------------------------------------------|

D----------------------------------------------|
B--8--10--12--13--10--12--10--8--10--10--8--8--|
G--0---0---0---0---0---0---0--0---0---0--0--0--|
D--9--10--12--13--10--12--10--9--10--10--9--9--|
G--0---0---0---0---0---0---0--0---0---0--0--0--|
D----------------------------------------------|

Chorus:
D--------------------------------------------------|
B-15-15-15-15-14-14-13-13-12-12-12-12-12-12-12-12--|
G--0--0--0--0--0--0--0--0--0--0--0--0--0--0--0--0--|
D-15-15-15-15-14-14-13-13-12-12-12-12-12-12-12-12--|
G--0--0--0--0--0--0--0--0--0--0--0--0--0--0--0--0--|
D--------------------------------------------------|

D-----------------------------------------|
B--12-12-12-12-11-11-10-10-8-8-8-8-8-8-8--|
G---0--0--0--0--0--0--0--0-0-0-0-0-0-0-0--|
D--12-12-12-12-11-11-10-10-9-9-9-9-9-9-9--|
G---0--0--0--0--0--0--0--0-0-0-0-0-0-0-0--|
D-----------------------------------------|

Solo Rhythm:
D----------------------------------------|
B--0--0-1----1--1-6----6--6-1----1--1-0--|
G--0--0-0----0--0-0----0--0-0----0--0-0--|
D--0--0-2----2--2-7----7--7-2----2--2-0--|
G--0--0-0----0--0-0----0--0-0----0--0-0--|
D----------------------------------------|

Outro:
A
D------------|
B--8--10--8--|
G--0---0--0--|
D--0---0--0--|
G--0---0--0--|
D------------|

B
D-------------------|
B--8--10--8------8--|
G--0---0--0--10--0--|
D--0---0--0---0--0--|
G--0---0--0---0--0--|
D-------------------|

C
D--------------------------|
B--8--10--8--12--8--10--8--|
G--0---0--0---0--0---0--0--|
D--0---0--0---0--0---0--0--|
G--0---0--0---0--0---0--0--|
D--------------------------|

Interchange outro riffs A, B, and C as you feel necessary.  Rich doesn't play the part
same way twice.
Добавлено: 23.03.2012
Другие материалы по этой песне:
  • Аккорды и текст

Страница создана 23.03.2012
http://primanota.ru/black-crowes/spider-in-the-sugar-bowl-blues-chords.htm
Привет, Гость.
Предлагаем пройти революционный курс по гитаре.
Подарок от PrimaNota.Ru, забирай!