PrimaNota.ru - самый крупный в мире бесплатный архив песенных текстов, аккордов, табулатур и нот


Black Crowes - Smile - аккорды и текст, видео

Регистрация Запомнить меня
Войти через:  Facebook Google Twitter Vk Yandex Mail.ru

Black Crowes - Smile - аккорды и текст, видео

Печатать
Просмотров: 137
Smile
Black Crowes
The Black Crowes
Song Title: Smile
TBC Original? Yes
Written By: Chris and Rich Robinson
Recording Session: Band, By Your Side
Record: Band (released as "Lost Crowes")
Live Debut: 04/13/2006
Shows: 25 times played live
Notes: This song is from the The Band Sessions. An older more mellow version of the song
appeared on the unreleased album The Band. Lyrics below are from the earlier version,
lyrics in brackets are alternate lyrics from the By Your Side b-side.

-------------------
The above information was taken from www.crowesbase.com

Tuning: EADGBE (Standard)

This tab is based off of the original Band recording of this song, not the By Your Side
b-side.  The only real difference between the two in terms of the chords is that the "A
game nobody won" and "A song already sung" lyrics have B and E chords played over them
on the Band version and A and D on the By Your Side b-side.  The choruses to the Band
version loosely follow the intro in terms of the picking pattern, and while there's just
a little more going on during the choruses it's not significant enough to warrant
re-tabbing the choruses note for note.  The By Your Side b-side, on the other hand, is 
all over the place in terms of the picking in both the intro, choruses, and even verses, 
so the chords
will have to suffice.

Notable chords:

  Dsus2  Dm9   G/D(1) G/D (2 fr.) F G/f#  G/E
E---0-----0-----7-------------------3-----3--|
B---3-----6-----8------3------1-----3-----3--|
G---2-----5-----7------4------2-----0-----0--|
D---0-----0-----0------5------3-----0-----0--|
A----------------------5------3-----x-----x--|
E-----------------------------------2-----0--|

Intro:
E--0-0--0----0------7-7--2----0--0---0----0--|
B--3-3--6------6----8-8--3----1----1-3----1--|
G--2-2--5--------5--7-7--2----2------4----0--|
D--0-0--0-----------0-0--0----3------5----2--|
A-----------------------------3------5----3--|
E--------------------------------------------|

E--0-0--0----0------7-7--2----2--------0--0---0--|
B--3-3--6------6----8-8--3------3------1----1-3--|
G--2-2--5--------5--7-7--2--------2p0--2------4--|
D--0-0--0-----------0-0--0-------------3------5--|
A------------------------------------------------|
E------------------------------------------------|

Dm	 F
I wonder why
Am		    G
You spend so much time
Dm		F
Staring at the sky
Am		    G
Always feeling outside

Pre-chorus: Rich plays what I have tabbed here, but I've included the chords as well.
This applies to both pre-choruses in the song.

E---------------------0--0----0--0---0----|
B--4--4-4-4-2-4-5-----0--0----0--0---0----|
G--4------------------1--1----1--1---1----| x4
D--4------------------2--2----2--2---2----|
A--2--------------------------------------|
E------------------0-------0-------0---0--|

B		    E
When you call I come
B		       E
When it's over and done
B		 E
A game nobody won
B		   E
A song already sung

Dsus2 Dm9	  G/D(1) D
All I want is for you to smile
Dsus2	  Dm9	     G/D(1) D
I haven't seen it in such a while
Dsus2 Dm9	  G/D(1) D
All I want is for you to smile
F  G/D(2)	C
Even just for a little while

Dm		    F
Feeling counter clockwise
Am	      G
Betrayed and denied
Dm		   F
Its too late to cry
Am		  G
One last backslide

Pre-chorus:
E---------------------0--0----0--0---0----|
B--4--4-4-4-2-4-5-----0--0----0--0---0----|
G--4------------------1--1----1--1---1----| x4
D--4------------------2--2----2--2---2----|
A--2--------------------------------------|
E------------------0-------0-------0---0--|

B		    E
When you call I come
B		       E
When it's over and done
B		 E
A game nobody won
B		   E
A song already sung

Dsus2 Dm9	  G/D(1) D
All I want is for you to smile
Dsus2	  Dm9	     G/D(1) D
I haven't seen it in such a while
Dsus2 Dm9	  G/D(1) D
All I want is for you to smile
F  G/D(2)	C
Even just for a little while

Solo rhythm:
D  G  G/f#  G/E
D  G  G/f#  G/E
D  G  G/f#  G/E
D  G  G/f#  G/E

Dsus2 Dm9	  G/D(1) D
All I want is for you to smile
Dsus2	  Dm9	     G/D(1) D
I haven't seen it in such a while
Dsus2 Dm9	  G/D(1) D
All I want is for you to smile
F  G/D(2)
Even just
F  G/D(2)
Even just
F  G/D(2)  D
Even just
Добавлено: 09.05.2012
Другие материалы по этой песне:
  • Аккорды и текст

Страница создана 09.05.2012
http://primanota.ru/black-crowes/smile-chords.htm
Привет, Гость.
Предлагаем пройти революционный курс по гитаре.
Подарок от PrimaNota.Ru, забирай!