PrimaNota.ru - самый крупный в мире бесплатный архив песенных текстов, аккордов, табулатур и нот


Black Crowes - Sisters Of The Revolution - таба, видео

Регистрация Запомнить меня
Войти через:  Facebook Google Twitter Vk Yandex Mail.ru

Black Crowes - Sisters Of The Revolution - таба, видео

Печатать
Просмотров: 81
The Black Crowes
Song Title: Goodbye Daughters Of The Revolution
TBC Original? Yes
Written By: Chris and Rich Robinson
Recording Session: Warpaint
Record: Other, Warpaint
Live Debut: 03/02/2008
Shows: 88 times played live
Notes: This song was recorded in July, 2007 at Allaire Studios, Shokan, NY. It was
produced by Paul Stacey and The Black Crowes.

"It's a little bit cheeky that one. The whole idea is the paranoid utopian blues. We
know it's bad, we know they've laid the trance on thick, but for those of us who can see
through it we should run through the gates of the city and find ourselves in this place 
we want to live. I think that's the best sort of banner for the record to start under. If
people are wondering if this is a rock & roll record, this is a good example of 
where our hearts and minds are." - Chris Robinson

This song was released as a single on January 22, 2008 from the album WARPAINT, which
will be available everywhere on March 4, 2008.

-------------------------
The above information was taken from www.crowesbase.com

Tuning: DGDGBD (Open G)

Intro
D-----------------------------------|
B--7-7-7--7--7-7--7--7-7-7-7-7-7-7--|
G--5-5-5--5--5-5--0--0-0-0-0-0-0-0--|
D--x-x-x--x--x-x--5--5-5-5-5-5-5-5--| x8
G--7-7-7--7--7-7--7--7-7-7-7-7-7-7--|
D-----------------------------------|

Verse
D-----------------------------------|
B--5-5-5--5--5-5--5--5-5-5-5-5-5-5--|
G--3-3-3--3--3-3--0--0-0-0-0-0-0-0--|
D--x-x-x--x--x-x--3--3-3-3-3-3-3-3--| x2
G--5-5-5--5--5-5--5--5-5-5-5-5-5-5--|
D-----------------------------------|

1st ending
D--------------------------------|
B--4--5-5-5-4--4--4-4-4-4-4-4-4--|
G--4--4-4-4-4--4--4-4-4-4-4-4-4--|
D--4--6-6-6-4--4--4-4-4-4-4-4-4--| x2
G--------------------------------|
D--------------------------------|

On the repeat, continue to the second ending...

2nd ending
D------------------------------------------------------|
B--4--4--4-4--4--4-4-4-4-4-4-4----4--4--4-4--4--4-3-0--|
G--4--4--4-4--4--4-4-4-4-4-4-4----4--4--4-4--4--4-3-0--|
D--4--4--4-4--4--4-4-4-4-4-4-4----4--4--4-4--4--4-3-0--|
G------------------------------------------------------|
D------------------------------------------------------|

...which leads to the chorus.  Listen to the song to get exact rhythms for the verse parts.

Chorus
D----------|
B--5----0--|
G--5----0--|
D--5----0--| x4
G--5----0--|
D----------|

These chords are played with a similar rhythm to the verses.  Play the C for two
measures, then the open G for two measures.  Repeat the whole figure four times.

After the first chorus, go back to the intro chords, which are repeated four times.

Solo Rhythm
D--------------|
B-----------0--|
G-----------0--|
D--3--2--1--0--| x4
G-----------0--|
D--3--2--1-----|

The solo is followed immediately by this:

Interlude
D----------|
B--5----7--|
G--5----7--|
D--5----7--|
G--5----7--|
D----------|

Play the C chord for 6 measures, then move up to the D for three and a half.  The last
two beats are the pickups to the chorus (the last two chor
Добавлено: 15.10.2015
Другие материалы по этой песне:
  • Аккорды и текст

Страница создана 15.10.2015
http://primanota.ru/black-crowes/sisters-of-revolution-chords.htm
Привет, Гость.
Предлагаем пройти революционный курс по гитаре.
Подарок от PrimaNota.Ru, забирай!