PrimaNota.ru - самый крупный в мире бесплатный архив песенных текстов, аккордов, табулатур и нот


Black Crowes - Peace Anyway - таба, видео

Регистрация Запомнить меня
Войти через:  Facebook Google Twitter Vk Yandex Mail.ru

Black Crowes - Peace Anyway - таба, видео

Печатать
Просмотров: 106
The Black Crowes
Song Title: Peace Anyway
TBC Original? Yes
Written By: Chris and Rich Robinson
Recording Session: Band, By Your Side
Record: Other, Lost Crowes
Live Debut: 04/21/2005
Shows: 17 times played live
Notes: Evolved from Peace Anyway Jam. There are two studio versions of this song. The 
Band version and the By Your Side B-side.

---------------------------
The above info taken from www.crowesbase.com

Tuning: CFCFAC (Open F- Open G down a full step)

As with most Black Crowes songs I learn, I don't know this one note for note.  Open 
allow for a lot of little fills that are much easier to just improvise then to sit here and 
them out individually, so this is the basic idea for the rhythm guitar only.

The intro starts with piano/organ (depending on which version you listen to) that is 
joined by the rhythm guitar hitting an open F chord repeatedly with a crescendo, which then 
to the verse riff.

Verse:
C---0--0--0--|
A---1--1--0--|
F---0--0--0--|
C---3--3--0--|
F---2--2--0--|
C------------|

Chorus:
C----------------|    |-------------------|
A--0--1--3--5--5-|    |-5--3--1/3\1p0--0--|
F--0--0--0--0--0-| x3 |-0--0--0/0\0p0--0--|
C--0--0--0--0--0-|    |-0--0--0/0\0p0--0--|
F--0--2--4--5--5-|    |-5--4--2/4\2p0--0--|
C----------------|    |-------------------|

The whole chorus figure is played twice.

Bridge/Solo:
C---0-----0---0-----0----0--0--|
A---12----12--10----5----5--4--|
F---0-----0---0-----0----0--0--|
C---0-----0---0-----0----0--0--|
F---12----12--10----5----5--5--|
C------------------------------|
Добавлено: 19.07.2012
Другие материалы по этой песне:
  • Аккорды и текст

Страница создана 19.07.2012
http://primanota.ru/black-crowes/peace-anyway-chords.htm
Привет, Гость.
Предлагаем пройти революционный курс по гитаре.
Подарок от PrimaNota.Ru, забирай!