PrimaNota.ru - самый крупный в мире бесплатный архив песенных текстов, аккордов, табулатур и нот


Black Crowes - One Mirror Too Many - текст песни, таба, видео

Регистрация Запомнить меня
Войти через:  Facebook Google Twitter Vk Yandex Mail.ru

Black Crowes - One Mirror Too Many - текст песни, таба, видео

Печатать
Просмотров: 157
The Black Crowes
Song Title: One Mirror Too Many
TBC Original? Yes
Written By: Chris and Rich Robinson
Recording Session: Three Snakes and One Charm
Record: Three Snakes and One Charm
Live Debut: 09/20/1996
Shows: 42 times played live
Notes: none at this time.

------------------------
The above information was taken from www.crowesbase.com

Tuning: DGDGBD (Open G), with capo at 3rd fret.  All fret numbers are in relation to the capo.

This one was a little tougher to tab out because Rich is low in the mix and there are
overdubs on the album version, so I had to resort to the Rockpalast video on youtube
 This is a loose transcription of the basic parts of this song.  As with any Black
song, improvising some of the rhythms and fills is encouraged.

Intro/Verse
Riff A
D-----------|
B-----------|
G-----------|
D--0-0-0-0--|
G--0-0-0-0--|
D-----------|

On the album, it seems like one guitar is dedicated to repeatedly playing these 
open
while a separate guitar plays the following passage:

Riff B
D-----------------------------------------|
B--0-1-3-5-0-3--0-1-3-5-0-6--0-1-3-5-5-3--|
G-----------------------------------------|
D-----------------------------------------|
G-----------------------------------------|
D-----------------------------------------|

During live versions however, it seems like Rich plays a combination of both riffs A and B.

Chorus
D-------------------------------|
B-------------------------------|
G-------------------------------|
D--7--5-7--7--7-5-7-------------| x8
G--7--5-7--7--7-5-7--5-7--------|
D------------------------3-4-0--|

This part is hard to hear on the album (thanks to Marc Ford drowning it out), but this
what I could gather from the youtube video.

You might also want to try this, which is a combination of the rhythm part that's 
(as far as I can tell) played and the part that's most audible in the mix:

D-----------------------------|
B-----------------------------|
G-----------------------------|
D--7--5-7--7--7-5-7-----------|
G--7--5-7--7--7-5-7--0--------|
D----------------------3b4-0--|

Solo Rhythm
D--------------------|
B--1----0----1----0--|
G--0----0----0----0--|
D--2----0----2----0--|
G--0----0----0----0--|
D--------------------|

These chords are held out.

Outro
D------------------------|
B------------------------|
G----/5--4---------------|
D-----------/5--3--2-----|
G----/5--4---------------|
D--0--------/5--3--2--0--|
Добавлено: 19.03.2012
Другие материалы по этой песне:
  • Аккорды и текст

Страница создана 19.03.2012
http://primanota.ru/black-crowes/one-mirror-too-many-chords.htm
Привет, Гость.
Предлагаем пройти революционный курс по гитаре.
Подарок от PrimaNota.Ru, забирай!