PrimaNota.ru - самый крупный в мире бесплатный архив песенных текстов, аккордов, табулатур и нот


Black Crowes - Midnight From The Inside Out - текст песни, таба, видео

Регистрация Запомнить меня
Войти через:  Facebook Google Twitter Vk Yandex Mail.ru

Black Crowes - Midnight From The Inside Out - текст песни, таба, видео

Печатать
Просмотров: 150
Уроки эстрадного вокала в Санкт-Петербурге
Авторы: Rich Robinson, Chris Robinson

The Black Crowes
Song Title: Midnight From The Inside Out
TBC Original? Yes
Written By: Chris and Rich Robinson
Recording Session: Lions
Record: Lions, Live
Live Debut: 02/03/2001
Shows: 91 times played live
Notes: Besides the known studio cut, there is an early version of this song with 
lyrics.

-----------------------------------
The above information was taken from www.crowesbase.com

This song was originally transcribed by Greg Schuchart.  I made some very small changes.

Tuning: DbGbDbGbBbDb (Open G down one half step)

Intro (after the false start):
Db---------|
Bb--3------|
Gb--5b7r5--|
Db---------|
Gb---------|
Db---------|

Slowly bend up a full step, hold the bend for a few beats, then slowly bend back down 
picking every note) until the drums come in.  Listen to the song for timing.

Main Riff:
Db---------5-----------------5----------|
Bb--------------------------------------|
Gb--0--5b7===7r5-4----0--5b7===5b7r5-4--|
Db--0--------------5--0-----------------|
Gb--0-----------------0-----------------|
Db--------------------------------------|

NOTE: The very first time this riff is played (after the false start), Rich plays an A 
of a Bb.  This only happens once.

Db---------5---------------------------|
Bb--------------------3--3--3-3-3-0-0--|
Gb--0--5b7===7r5-4----0--0--0-0-0-0-0--|
Db--0--------------5--5--5--5-5-5-0-0--|
Gb--0-----------------4--4--5-5-5-0-0--|
Db-------------------------------------|

Hold the bend on the C note while playing the F# on the high D string, then hit the held 
again, and release it to the B as indicated.

Verse:
Db----------------------------------------------------------------------------|
Bb-----------------------------------------------------------3--3--3-3-3-0-0--|
Gb-------------4----------------4-------------------4--------0--0--0-0-0-0-0--|
Db-----3h5-3h5---5-3----3h5-3h5---5-3-5-----3h5-3h5---5-2-5--5--5--5-5-5-0-0--|
Gb--0-----------------0------------------0-------------------4--4--5-5-5-0-0--|
Db----------------------------------------------------------------------------|

Play this during the second time through this riff during the second verse:
Db----------------------------------------------------------------------------|
Bb-----------------------------------------------------------3--3--3-3-3-0-0--|
Gb-------------4----------------4-------------------4-5-4----0--0--0-0-0-0-0--|
Db-----3h5-3h5---5-3----3h5-3h5---5-2-5-----3h5-3h5-------5--5--5--5-5-5-0-0--|
Gb--0-----------------0------------------0-------------------4--4--5-5-5-0-0--|
Db----------------------------------------------------------------------------|

Chorus:
Db-------------------------------------|
Bb--5-6-5-0--5-6-5-0-------------------|
Gb--5-5-5-0--5-5-5-0----0---0---0------| x4
Db--5-7-5-0--5-7-5-0--0---1---2---2/5--|
Gb--5-5-5-0--5-5-5-0-------------------|
Db-------------------------------------|

Interlude:
Db-------------------------------------------------------------------|
Bb--3-3-3-3-3-3-3-3-1-1-1-1-1-1-1-1-3-3-3-3-3-3-3-3-3-3-3-3-3-3-3-3--|
Gb--0-0-0-0-0-0-0-0-0-0-0-0-0-0-0-0-0-0-0-0-0-0-0-0-0-0-0-0-0-0-0-0--| x4
Db--5-5-5-5-5-5-5-5-3-3-3-3-3-3-3-3-5-5-5-5-5-5-5-5-5-5-5-5-5-5-5-5--|
Gb--0-0-0-0-4-0-0-4-0-0-0-0-2-0-0-2-0-0-0-0-4-0-0-4-0-0-0-0-4-0-0-4--|
Db-------------------------------------------------------------------|
Добавлено: 09.07.2012
Другие материалы по этой песне:
  • Аккорды и текст

Страница создана 07.04.2012
http://primanota.ru/black-crowes/midnight-from-the-inside-out-chords.htm
Привет, Гость.
Предлагаем пройти революционный курс по гитаре.
Подарок от PrimaNota.Ru, забирай!