PrimaNota.ru - самый крупный в мире бесплатный архив песенных текстов, аккордов, табулатур и нот


Black Crowes - Make Glad - таба, видео

Регистрация Запомнить меня
Войти через:  Facebook Google Twitter Vk Yandex Mail.ru

Black Crowes - Make Glad - таба, видео

Печатать
Просмотров: 115
The Black Crowes
Song Title: Make Glad
TBC Original? Yes
Written By: Chris and Rich Robinson
Recording Session: Cabin Fever
Record: Before The Frost...
Live Debut: 02/21/2009
Shows: 12 times played live
Notes: Recorded at Levon Helm's home studio, "The Barn" in Woodstock, NY in front of a 
audience.

Joe Magistro played percussion

-------------------------
The above information was taken from www.crowesbase.com

Tuning: EADGBE (Standard)

Main Riff/Verse:
E----------------------------------|
B----------------------------------|
G----------------------------------|
D----2---2------------------2---2--|
A----0---0------0h3p0-------0---0--|
E--3---3----0h3-------3p0-3---3----|

Chorus:
E--1/2--2--------5-5---2------2----|
B--2/3--3-1/2--2-5-5---3-2----3-2--|
G--1/2--2-1/2--2-2-2---2-2----2-2--|
D---------1/2--2-2-2-0-0-2--0-0-2--|
A--------------0-0-0-0---0--0---0--|
E----------------------------------|

Solo Rhythm:
E-------------------------------------------------------------------|
B-------------------------------------------------------------------|
G-------------------------------------------------------------------|
D-------------------------------------------------------------------|
A-------------------------------------------------------------------|
E--3-3-x-x-x-x-3-3-x-x-x-x-x-x-x-x-5-5-x-x-x-x-5-5-x-x-x-x-x-x-x-x--|
Добавлено: 04.04.2012
Другие материалы по этой песне:
  • Аккорды и текст

Страница создана 04.04.2012
http://primanota.ru/black-crowes/make-glad-chords.htm
Привет, Гость.
Предлагаем пройти революционный курс по гитаре.
Подарок от PrimaNota.Ru, забирай!