PrimaNota.ru - самый крупный в мире бесплатный архив песенных текстов, аккордов, табулатур и нот


Black Crowes - Low Down - таба, видео

Регистрация Запомнить меня
Войти через:  Facebook Google Twitter Vk Yandex Mail.ru

Black Crowes - Low Down - таба, видео

Печатать
Просмотров: 121
The Black Crowes
Song Title: Low Down
TBC Original? Yes
Written By: Chris and Rich Robinson
Recording Session: Tall
Record: Tall (released as "Lost Crowes")
Live Debut: Never Played Live
Related Song: Ballad In Urgency
Notes: This song evolved into Ballad In Urgency. The version on the Tall album was 
on February 2, 1994.

-----------------------------
The above information was taken from www.crowesbase.com

Tuning: EADGBE (Standard)

Intro:
E----------------------|
B----------------------|
G------7-7--------5-5--|
D--7-7-7-7----5-5-5-5--|
A--4-4-5-5----2-2-3-3--|
E----------------------|

E----0-----0------1-1------------------------|
B------3-----3----3---3----------------------|
G--------------2--2-----2-0h2----------------|
D--------0--------0--------------------------|
A--0--------------------------------0-2-0-2--|
E-----------------------------0-2-3----------|

E----------0------1-1------------------------|
B----0-------3----3---3----------------------|
G------2-------2--2-----2-0h2----------------|
D--------0--------0--------------------------|
A--0--------------------------------0-2-0-2--|
E-----------------------------0-2-3----------|

Verse 1, 2:
E----------0------1-1--------------------------|
B----0-------3----3---3-------3----------------|
G------2-------2--2-----2-0h2------------------|
D--------0--------0----------------------------|
A--0----------------------------------0-2-0-2--|
E-------------------------------0-2-3----------|

Verse 3:
E----------0------1-1-----2----------------|
B----0-------3----3---3---3----------------|
G------2-------2--2-----2-2----------------|
D--------0--------0-------0----------------|
A--0------------------------------0-2-0-2--|
E---------------------------0-2-3----------|

Chorus:
E------------------------------------------------5-5--5-5--5-5--------5-5--5-5--5-5--|
B------7-7--7-7--7-7--------5-5--5-5--5-5--------5-5--5-5--5-5--------5-5--5-5--5-5--|
G------7-7--7-7--7-7--------5-5--5-5--5-5--------6-6--6-6--6-6--------6-6--6-6--6-6--|
D--7-7-7-7--7-7--7-7----5-5-5-5--5-5--5-5--------7-7--7-7--7-7--------7-7--7-7--7-7--|
A--4-4-5-5--5-5--5-5----2-2-3-3--3-3--3-3----7-7-7-7--7-7--7-7----7-7-7-7--7-7--7-7--|
E--------------------------------------------4-4-5-5--5-5--5-5----4-4-5-5--5-5--5-5--|

E------------------------------------------------5-5--5-5--5-5--|
B------7-7--7-7--7-7--------5-5--5-5--5-5--------5-5--5-5--5-5--|
G------7-7--7-7--7-7--------5-5--5-5--5-5--------6-6--6-6--6-6--|
D--7-7-7-7--7-7--7-7----5-5-5-5--5-5--5-5--------7-7--7-7--7-7--|
A--4-4-5-5--5-5--5-5----2-2-3-3--3-3--3-3----7-7-7-7--7-7--7-7--|
E--------------------------------------------4-4-5-5--5-5--5-5--|

E------3-3--3--3-3--------1-1--1--1-1--3--|
B------3-3--3--3-3--------1-1--1--1-1--3--|
G------4-4--4--4-4--------2-2--2--2-2--4--|
D------5-5--5--5-5--------3-3--3--3-3--5--|
A--7-7-5-5--5--5-5----5-5-3-3--3--3-3--5--|
E--4-4-3-3--3--3-3----2-2-1-1--1--1-1--3--|

Solo Rhythm:
E-------------0--0--|
B--2--2--0----0--0--|
G--2--2--0----6--7--|
D--2--2--0----7--7--|
A--0--0-------7--7--|
E--------3----------|
Добавлено: 13.05.2012
Другие материалы по этой песне:
  • Аккорды и текст

Страница создана 13.05.2012
http://primanota.ru/black-crowes/low-down-chords.htm
Привет, Гость.
Предлагаем пройти революционный курс по гитаре.
Подарок от PrimaNota.Ru, забирай!