PrimaNota.ru - самый крупный в мире бесплатный архив песенных текстов, аккордов, табулатур и нот


Black Crowes - Let Me Share The Ride - текст песни, таба, видео

Регистрация Запомнить меня
Войти через:  Facebook Google Twitter Vk Yandex Mail.ru

Black Crowes - Let Me Share The Ride - текст песни, таба, видео

Печатать
Просмотров: 140
The Black Crowes
Song Title: Let Me Share The Ride
TBC Original? Yes
Written By: Chris and Rich Robinson
Recording Session: Three Snakes and One Charm
Record: Three Snakes and One Charm
Live Debut: 12/19/1995
Shows: 13 times played live
Notes: commonly known as "Share The Ride"

----------------------------
The above information was taken from www.crowesbase.com

Tuning: DGDGBD (Open G)

Intro:
D-------------------------------------------|
B-------------------------------------------|
G--0-----3---------0-------------------3p0--|
D----3h5----3-5-5----3h5-5----5-5--3-0------|
G----0------0-0-0----0---0--0-0-0--0--------|
D-------------------------------------------|

D--------------------------------------------------|
B----------------------------------------5--x-5-3--|
G----------------------------------------5--x-5-4--|
D--3h5-5--3-5-5--3--0-3p0--3h5-5----5-5------------|
G--0---0--0-0-0--0---------0---0--0-0-0------------|
D--------------------------------------------------|

D----------------------------------------------|
B----------------------------------------------|
G---------------3---3p0------------------------|
D--3--5----5-5----0------3h5-5---5-5-----------|
G--0-----0-0-0-----------0---0-0-0-0--3-x-3p0--|
D----------------------------------------------|

D------------------------------------------------|
B------------------------------------------------|
G---------------------3p0------------------------|
D--3h5-5---5-5----3-0------3h5-5---5-5--5---5----|
G--0-----0-0-0--0----------0---0-0-0-0----0---5--|
D------------------------------------------------|

Verse (w/slide):
D-------------0--------/5-----------0--------|
B--/8----/12----0---------5----/12----0------|
G-----------------0---------5-----------0----|
D-------------------0---------------------0--|
G--------------------------------------------|
D--------------------------------------------|

D--/5---------------------------------------|
B-----5-----/12--0------/12--0--/12--0------|
G-------5\4--------0-------------------0----|
D--------------------0-------------------0--|
G-------------------------------------------|
D-------------------------------------------|

D-------------------------------------------|
B--/15--/17-/17\12--/12/13-13--13\12-0------|
G--------------------------------------0----|
D----------------------------------------0--|
G-------------------------------------------|
D-------------------------------------------|

D--------------0-------------------5----|
B--/8-----6\5---------/8--0---0--0---0--|
G-------------7--0----------------------|
D------0-----------0--------0-----------|
G---------------------------------------|
D---------------------------------------|

Chorus (w/slide):
D--------5------5---------------------------|
B--/5-------5------5-------0-------------0--|
G--/5---------5------5\----0------0---------| x2
D--/5--------------------0----0h2----0h2----|
G-------------------------------------------|
D-------------------------------------------|

D------------7------7------------5------5------5-------|
B-----7--7------7------7-------5----5------5------5----|
G-----7----7------7------7------------5------5------5--|
D--/7-----------------------/5-------------------------|
G------------------------------------------------------|
D------------------------------------------------------|

D--------------------------------|
B----0----0-1p0---0h1----1----0--|
G----0----0-0-----0------0----0--|
D--0-0--0-0-2p0-0-0h2--2-2--0-0--|
G--------------------------------|
D--------------------------------|

Interlude:
D----------------------|
B--0------0------------|
G-----2p0-------0------| x2
D-----------2/4--------|
G-----------------0----|
D----------------------|

D-------------------|
B-------------------|
G----0---0-------0--| x2
D----------------0--|
G------------2p0----|
D--2---3---2--------|

Last Measure:
D----------5------------------|
B--10\8-------5----0--3/5--0--|
G-------0--------0---------0--|
D--------------------------0--|
G-----------------------------|
D-----------------------------|
Добавлено: 07.05.2012
Другие материалы по этой песне:
  • Аккорды и текст

Страница создана 29.02.2012
http://primanota.ru/black-crowes/let-me-share-the-ride-chords.htm
Привет, Гость.
Предлагаем пройти революционный курс по гитаре.
Подарок от PrimaNota.Ru, забирай!