PrimaNota.ru - самый крупный в мире бесплатный архив песенных текстов, аккордов, табулатур и нот


Black Crowes - Kept My Soul - текст песни, таба, видео

Регистрация Запомнить меня
Войти через:  Facebook Google Twitter Vk Yandex Mail.ru

Black Crowes - Kept My Soul - текст песни, таба, видео

Печатать
Просмотров: 117
The Black Crowes
Song Title: Kept My Soul
TBC Original? Yes
Written By: Chris and Rich Robinson
Recording Session: Cabin Fever
Record: Before The Frost...
Live Debut: 02/21/2009
Shows: 6 times played live
Notes: Recorded at Levon Helm's home studio, "The Barn" in Woodstock, NY in front of a 
audience.

-----------------------------------
The above information was taken from www.crowesbase.com

Tuning: DGDGBD (Open G)

Intro:
D------------------|
B------------------|
G------0--0--3--5--| x4
D------0--0--3--5--|
G--3p0----0--3--5--|
D------------------|

Verse:
D-------------------------------------------|
B--------------------------------1----------|
G----3---0---0-----3-0-----0-0---3-------0--|
D----2---0-----3-0-----3-0-0-0---2-----0----|
G--0---0---0-------------------0-0--/4------|
D-------------------------------------------|

Pre-Chorus:
D-----10---9--------------------------------------|
B---------------10-8-7-7------------8--8-7---8-7--|
G------------------------7---7-7----7--7-7---7-7--|
D--------------------------7-7-7----9--9-7---9-7--|
G--/7----7---7-7------------------7-7------7------|
D-------------------------------------------------|

Chorus:
D---------------------------------------------|
B--0--0--10-11-10-10--7-8-7-7--5-6-5-5--------|
G--0--0--10-10-10-10--7-7-7-7--5-5-5-5--------|
D--0--0--10-12-10-10--7-9-7-7--5-7-5-5--------|
G--0--0--10-10-10-10--7-7-7-7--5-5-5-5--------|
D--------------------------------------0h3p0--|

D-----------------------------------------------------|
B--0--0--10-11-10-10--7-8-7-7--5-6-5-5----------------|
G--0--0--10-10-10-10--7-7-7-7--5-5-5-5----------------|
D--0--0--10-12-10-10--7-9-7-7--5-7-5-5----------------|
G--0--0--10-10-10-10--7-7-7-7--5-5-5-5-------3p0------|
D--------------------------------------0h3p0-----3p0--|

D------------------------------------------|
B--0--10-11-10-10--7-8-7-7--5-6-5-5--------|
G--0--10-10-10-10--7-7-7-7--5-5-5-5--------|
D--0--10-12-10-10--7-9-7-7--5-7-5-5--------|
G--0--10-10-10-10--7-7-7-7--5-5-5-5--------|
D-----------------------------------0h3p0--|

D---------------------------------------|
B--0--0--10-11-10-10--7-8-7-7--5-6-5-5--|
G--0--0--10-10-10-10--7-7-7-7--5-5-5-5--|
D--0--0--10-12-10-10--7-9-7-7--5-7-5-5--|
G--0--0--10-10-10-10--7-7-7-7--5-5-5-5--|
D---------------------------------------|

D-----------|
B--5-6-5-5--|
G--5-5-5-5--| x3
D--5-7-5-5--|
G--5-5-5-5--|
D-----------|

D-----------|
B-----------|
G--------0--|
D--------0--|
G--0-3p0----|
D-----------|

Final Chorus:
D---------------------------------------------|
B--0--0--10-11-10-10--7-8-7-7--5-6-5-5--------|
G--0--0--10-10-10-10--7-7-7-7--5-5-5-5--------| x2
D--0--0--10-12-10-10--7-9-7-7--5-7-5-5--------|
G--0--0--10-10-10-10--7-7-7-7--5-5-5-5--------|
D--------------------------------------0h3p0--|

D-----------------------------------------------------|
B--0--0--10-11-10-10--7-8-7-7--5-6-5-5----------------|
G--0--0--10-10-10-10--7-7-7-7--5-5-5-5----------------|
D--0--0--10-12-10-10--7-9-7-7--5-7-5-5----------------|
G--0--0--10-10-10-10--7-7-7-7--5-5-5-5-------3p0------|
D--------------------------------------0h3p0-----3p0--|

D---------------------------------------|
B--0--0--10-11-10-10--7-8-7-7--5-6-5-5--|
G--0--0--10-10-10-10--7-7-7-7--5-5-5-5--|
D--0--0--10-12-10-10--7-9-7-7--5-7-5-5--|
G--0--0--10-10-10-10--7-7-7-7--5-5-5-5--|
D---------------------------------------|

D-----------|
B--5-6-5-5--|
G--5-5-5-5--| x3
D--5-7-5-5--|
G--5-5-5-5--|
D-----------|

D-----------|
B-----------|
G--------0--|
D--------0--|
G--0-3p0-0--|
D-----------|
Добавлено: 24.03.2012
Другие материалы по этой песне:
  • Аккорды и текст

Страница создана 24.03.2012
http://primanota.ru/black-crowes/kept-my-soul-chords.htm
Привет, Гость.
Предлагаем пройти революционный курс по гитаре.
Подарок от PrimaNota.Ru, забирай!