PrimaNota.ru - самый крупный в мире бесплатный архив песенных текстов, аккордов, табулатур и нот


Black Crowes - It Must Be Over - текст песни, таба, видео

Регистрация Запомнить меня
Войти через:  Facebook Google Twitter Vk Yandex Mail.ru

Black Crowes - It Must Be Over - текст песни, таба, видео

Печатать
Просмотров: 132
The Black Crowes
Song Title: It Must Be Over
TBC Original? Yes
Written By: Chris and Rich Robinson
Recording Session: By Your Side
Record: Other
Live Debut: Never Played Live
Notes: b-side of By Your Side. An earlier, unreleased version of this song was recorded 
November-December, 1997 by Chris, Rich, Steve, Ed and Sven. The early version is 
in arrangement, but played at a mellower tempo.

----------------------------
The above information was taken from www.crowesbase.com

Tuning: EbAbDbGbBbEb (1/2 step down from standard)

Intro/Verse Riff:
Eb----------------------------------------------------------|
Bb-------------3--x-x--------3--x-x--------3--x-x-----------|
Gb--2-2------2----x-x------2----x-x------2----x-x------2p0--|
Db--0-0--3h4------x-x--3h4------x-x--3h4------x-x--3h4------|
Ab----------------------------------------------------------|
Eb----------------------------------------------------------|

Eb----------------------------------------------------------|
Bb----------------------------------------------------------|
Gb-------------2--x-x--------2--x-x--------2--x-x-----------|
Db--2-2------2----x-x------2----x-x------2----x-x------2p0--|
Ab--0-0--3h4------x-x--3h4------x-x--3h4------x-x--3h4------|
Eb----------------------------------------------------------|

Pre Chorus:
G                    A
And with time you'll see
G                     A
You will forget about me
Bb                        F
And I've already disowned you
                G
From my memory
G
Can't you see

Chorus:
D  G/C  G/B

Eb------------------|
Bb------------------|
Gb------------------|
Db------------------|
Ab--3-2-0------0h2--|
Eb--------3--3------|

The chorus features the first three chords followed by the riff tabbed out above.  The 
figure is repeated four times.

Interlude:
Eb--0----0-0-----0--|
Bb--5----3-3-x-x-2--|
Gb--0----0-0-x-x-0--| x4
Db--5----4-4-x-x-2--|
Ab--0----0-0-----0--|
Eb------------------|

Solo Rhythm:
         | 1st, 2nd, 3rd endings
Eb-------|------------------------------|
Bb-------|------------------------------|
Gb-------|-------------2--x-x-----------|
Db--4----|--2-2------2----x-x------2p0--|
Ab--4----|--0-0--3h4------x-x--3h4------|
Eb--2----|------------------------------|

4th ending
Eb----------------------------------------------------------|
Bb----------------------------------------------------------|
Gb-------------2--x-x--------2--x-x--------2--x-x-----------|
Db--2-2------2----x-x------2----x-x------2----x-x------2p0--|
Ab--0-0--3h4------x-x--3h4------x-x--3h4------x-x--3h4------|
Eb----------------------------------------------------------|
Добавлено: 02.07.2012
Другие материалы по этой песне:
  • Аккорды и текст

Страница создана 14.03.2012
http://primanota.ru/black-crowes/it-must-be-over-chords.htm
Привет, Гость.
Предлагаем пройти революционный курс по гитаре.
Подарок от PrimaNota.Ru, забирай!