PrimaNota.ru - самый крупный в мире бесплатный архив песенных текстов, аккордов, табулатур и нот


Black Crowes - I Aint Hiding - таба, бас-таба, видео

Регистрация Запомнить меня
Войти через:  Facebook Google Twitter Vk Yandex Mail.ru

Black Crowes - I Aint Hiding - таба, бас-таба, видео

Печатать
Просмотров: 168
Уроки эстрадного вокала в Санкт-Петербурге
The Black Crowes
Song Title: I Ain't Hiding
TBC Original? Yes
Written By: Chris and Rich Robinson
Recording Session: Cabin Fever
Record: Before The Frost
Live Debut: 02/28/2009
Shows: 18 times played live
Notes: recorded at the barn at Levon Helm's Farm for the forthcoming album "Before The Frost..."

-------------------------
The above information was taken from www.crowesbase.com

This song was originally transcribed by the Amorica2 user CitizenDick.  I reformatted it 
edited it as I saw fit.

Tuning: EADGBE (Standard)

Rich Robinson:

Intro/Verse:
E---------------------------------|
B---------------------------------|
G---------------------------------|
D---------------------------------|
A--7-7-7-5-3-3-3-3-3-3-3----------|
E------------------------3/5-5-5--|

The above tab only shows what notes are played on what beat, but Rich plays his part by 
continuous straight 16th notes.

Chorus:
A7    G  D  A
A7    G  D  A
A7    G  D  A
A7    G D G D G D G D

Ending:
G    D    A

Chris Robinson:

Intro:
E---------------------------------|
B--5-7-5-7-7/8--8-10-8-7-5-5h7-5--|
G---------------------------------| x2
D---------------------------------|
A---------------------------------|
E---------------------------------|

Chorus:
A7    G  D  A
A7    G  D  A
A7    G  D  A
A7    G D G D G D G D

Solo Rhythm:
E--5-x-x-5-x-x-5-8--5-x-x-5-5-5--5-5--|
B--5-x-x-5-x-x-5-5--5-x-x-5-5-5--5-5--|
G--6-x-x-6-x-x-6-6--6-x-x-6-6-6--6-6--|
D--7-x-x-7-x-x-7-7--7-x-x-7-7-7--7-7--|
A-------------------------------------|
E-------------------------------------|

Luther Dickinson:

Intro:
E---------------------------------|
B--5-7-5-7-7/8--8-10-8-7-5-5h7-5--|
G---------------------------------|
D---------------------------------|
A---------------------------------|
E---------------------------------|

E--5-7-5-7-7/8--8-10-8-7-5-5h7-5--|
B---------------------------------|
G---------------------------------|
D---------------------------------|
A---------------------------------|
E---------------------------------|

Verse:
E----------------------------------------------3-4-5-5-x-5-x-5-x----5--|
B--x-9-x-9-x-9-x-7-x-5-x-5-x-5-x-5-x-5-x-5-x-5-3-4-5-5-x-5-x-5-x-7--5--|
G--x-9-x-9-x-9-x-7-x-5-x-5-x-5-x-5-x-5-x-5-x-5-4-5-6-6-x-6-x-6-x-7--6--|
D--x-9-x-9-x-9-x-7-x-5-x-5-x-5-x-5-x-5-x-5-x-5-5-6-7-7-x-7-x-7-x-7--7--|
A--x-7-x-7-x-7-x-5-x-3-x-3-x-3-x-3-x-3-x-3-x-3-5-6-7-7-x-7-x-7-x-5-----|
E----------------------------------------------3-4-5-5-x-5-x-5-x-------|

Solo Rhythm:
E--3-4-5--5--|
B--3-4-5--5--|
G--4-5-6--6--| x3
D--5-6-7--7--|
A--5-6-7--7--|
E--3-4-5--5--|

E--3-4-5--5--5-5-5--5--|
B--3-4-5--5--5-5-5--5--|
G--4-5-6--6--6-6-6--6--| x10
D--5-6-7--7--7-7-7--7--|
A--5-6-7--7--7-7-7--7--|
E--3-4-5--5--5-5-5--5--|


Chorus:
A7    G  D  A
A7    G  D  A
A7    G  D  A
A7    G D G D G D G D
Добавлено: 14.07.2012
Другие материалы по этой песне:
  • Аккорды и текст

Страница создана 30.06.2012
http://primanota.ru/black-crowes/i-aint-hiding-chords.htm
Привет, Гость.
Предлагаем пройти революционный курс по гитаре.
Подарок от PrimaNota.Ru, забирай!