PrimaNota.ru - самый крупный в мире бесплатный архив песенных текстов, аккордов, табулатур и нот


Black Crowes - How Much For Your Wings - текст песни, таба, видео

Регистрация Запомнить меня
Войти через:  Facebook Google Twitter Vk Yandex Mail.ru

Black Crowes - How Much For Your Wings - текст песни, таба, видео

Печатать
Просмотров: 153
Уроки эстрадного вокала в Санкт-Петербурге
The Black Crowes
Song Title: How Much For Your Wings?
TBC Original? Yes
Written By: Chris and Rich Robinson
Recording Session: Three Snakes and One Charm
Record: Three Snakes and One Charm
Live Debut: 09/23/1996
Shows: 58 times played live
Notes: written on the Fourth of July, 1995

---------------------------
The above information was taken from www.crowesbase.com

Tuning: DGDGBD (Open G)

Intro:
"The reddest of lights shine upon you young man, God be with you"
D-------------|
B--x--x-------|
G--x--x--0-0--|
D--x--x--0-0--|
G--x--x-------|
D-------------|

Chorus:
D----------------------------------------|
B------0---------------------------------|
G------0-----------0--------------0------|
D-----------------(0)-------------0------|
G--------x-12----------7-7----7-7--------|
D---12-----10----7---7-5-5----5-5----5/--|


Verse:
D-------------------------------------------------------------|
B-----------------------------------------------------0----0--|
G--7-7-7-7-7-x-x-x-x--7-7-7-7-7-x-x-x-x--7-7-7-7-7--7-7--5-5--|
D--4/5-5-5-5-x-x-x-x--4/5-5-5-5-x-x-x-x--4/5-5-5-5--x----x-x--|
G--0-0-0-0-0----------0-0-0-0-0----------0-0-0-0-0--7----5-5--|
D-------------------------------------------------------------|

Solo Rhythm:
D--------------------------------------------------------|
B--------------------------------------------------------|
G--7--7-x-x-6--6-x-x-x-x-5--5-x-x-3-3-x-x-x-x-3-3-3-3-3--|
D--5--5-x-x-4--4-x-x-x-x-3--3-x-x-2-2-x-x-x-x-2-2-2-2-2--|
G--0--0-x-x-0--0-x-x-x-x-0--0-x-x-0-0-x-x-x-x-0-0-0-0-0--|
D--------------------------------------------------------|
Добавлено: 22.06.2012
Другие материалы по этой песне:
  • Аккорды и текст

Страница создана 22.06.2012
http://primanota.ru/black-crowes/how-much-for-your-wings-chords.htm
Привет, Гость.
Предлагаем пройти революционный курс по гитаре.
Подарок от PrimaNota.Ru, забирай!