PrimaNota.ru - самый крупный в мире бесплатный архив песенных текстов, аккордов, табулатур и нот


Black Crowes - Houston Dont Dream About Me - таба, видео

Регистрация Запомнить меня
Войти через:  Facebook Google Twitter Vk Yandex Mail.ru

Black Crowes - Houston Dont Dream About Me - таба, видео

Печатать
Просмотров: 132
The Black Crowes
Song Title: Houston Don't Dream About Me
TBC Original? Yes
Written By: Chris and Rich Robinson
Recording Session: Cabin Fever
Record: Before The Frost...
Live Debut: 02/21/2009
Shows: 7 times played live
Notes: Recorded at Levon Helm's home studio, "The Barn" in Woodstock, NY in front of a 
audience.

-------------------------------
The above information was taken from www.crowesbase.com

Tuning: EADGBE (Standard)

Intro:
E--7-7-7-7-7--7--7-7--5-5--------------3-3-3------------------3--|
B--7-7-7-8-8--8--8-8--5-5-7-7--7--7-7--3-3-3-5-5--5-5-4--3-3--3--|
G--------9-9--9--9-9------7-7--7--7-7--------5-5--5-5-5--3-3--0--|
D--------9-9--9--9-9------7-7--7--7-7--------5-5--5-5-5--3-3--0--|
A--------7-7--7--7-7------5-5--5--5-5--------3-3--3-3-3--1-1--2--|
E-------------------------------------------------------------3--|

Verse:
E----------------3------3-0-----|
B----------0h1-0-1----------3-1-|
G------0-2-------2--------------|
D--0-2-----------2----2---------|
A----------------0--------------|
E-------------------------------|

E------------------3------3-0------|
B----------0-0h1-0-1----------3-1--|
G------0-2---------2---------------| x2
D--0-2-------------2----2----------|
A------------------0---------------|
E----------------------------------|

E--------------------------3---------------|
B--------------------------3--------1------|
G------0---0h2-0------0----0------0-----0--|
D--0h2---2--------0h2------0--0h2-----2----|
A--------------------------2---------------|
E-----------------------3--3---------------|

E------------------3------3-0------|
B----------0-0h1-0-1----------3-1--|
G------0-2---------2---------------| x3
D--0-2-------------2----2----------|
A------------------0---------------|
E----------------------------------|

E--------------------------3---------------|
B--------------------------3--------1------|
G------0---0h2-0------0----0------0-----0--|
D--0h2---2--------0h2------0--0h2-----2----|
A--------------------------2---------------|
E-----------------------3--3---------------|

Pre-Chorus:
E----------------------------------------------2-------2-------2----|
B--------------3-------3-------3-------3-----3---3---3---3---3---3--|
G------------4---4---4---4---1---1---1---1--------------------------|
D------------------4-----------------------0-------0-------0--------|
A----------2---------------1-------1--------------------------------|
E--3-5-3-5----------------------------------------------------------|

E------------------------------------------|
B--------------3-------3-------3-------3---|
G------------4---4---4---4---1---1---1---1-|
D------------------4-----------------------|
A----------2---------------1-------1-------|
E--3-5-3-5---------------------------------|

E------5------4------3-------------|
B------5------4------3--7--7--7-7--|
G------6------5------4--7--7--7-7--|
D------7------6------5--7--7--7-7--|
A------7------6------5--5--5--5-5--|
E--5-5-5--4-4-4--3-3-3-------------|

Chorus:
E--7-7-7-7--7--7-7--5-5-5--------------3-3-3------------------3--|
B--7-7-8-8--8--8-8--5-5-5-7-7--7--7-7--3-3-3-5-5--5-5-4--3-3--3--|
G------9-9--9--9-9--------7-7--7--7-7--------5-5--5-5-5--3-3--0--| x2
D------9-9--9--9-9--------7-7--7--7-7--------5-5--5-5-5--3-3--0--|
A------7-7--7--7-7--------5-5--5--5-5--------3-3--3-3-3--1-1--2--|
E-------------------------------------------------------------3--|

Bridge:
E--------------------------3--|
B--------1--------1--------3--|
G--------0--------0--------0--| x3
D--------2--------2--------0--|
A----0-2-3--2-0---3--2-0---2--|
E--3------------3--------3-3--|

E------------------------0--|
B--------1--------1------0--|
G--------0--------0------0--|
D--------2--------2------2--|
A----0-2-3--2-0---3--2-0-2--|
E--3------------3--------0--|

Solo Rhythm:
E------------------------------------------|
B--------------3-------3-------3-------3---|
G------------4---4---4---4---1---1---1---1-|
D------------------4-----------------------|
A----------2---------------1-------1-------|
E--3-5-3-5---------------------------------|

E------5------4------3-------------|
B------5------4------3--7--7--7-7--|
G------6------5------4--7--7--7-7--|
D------7------6------5--7--7--7-7--|
A------7------6------5--5--5--5-5--|
E--5-5-5--4-4-4--3-3-3-------------|

Ending:
E--7-7-7-7--7--7-7--5-5-5--------------|
B--7-7-8-8--8--8-8--5-5-5-7-7--7--7-7--|
G------9-9--9--9-9--------7-7--7--7-7--|
D------9-9--9--9-9--------7-7--7--7-7--|
A------7-7--7--7-7--------5-5--5--5-5--|
E--------------------------------------|

E--3-3-3-------------|
B--3-3-3-5-5--5-5-4--|
G--------5-5--5-5-5--| x3
D--------5-5--5-5-5--|
A--------3-3--3-3-3--|
E--------------------|

E-------3--|
B--3--3-3--|
G--3--3-0--|
D--3--3-0--|
A--1--1-2--|
E-------3--|
Добавлено: 12.03.2012
Другие материалы по этой песне:
  • Аккорды и текст

Страница создана 12.03.2012
http://primanota.ru/black-crowes/houston-dont-dream-about-me-chords.htm
Привет, Гость.
Предлагаем пройти революционный курс по гитаре.
Подарок от PrimaNota.Ru, забирай!