PrimaNota.ru - самый крупный в мире бесплатный архив песенных текстов, аккордов, табулатур и нот


Black Crowes - Gone - текст песни, таба, видео

Регистрация Запомнить меня
Войти через:  Facebook Google Twitter Vk Yandex Mail.ru

Black Crowes - Gone - текст песни, таба, видео

Печатать
Просмотров: 149
Авторы: Rich Robinson, Chris Robinson

The Black Crowes
Song Title: Gone
TBC Original? Yes
Written By: Chris and Rich Robinson
Recording Session: Amorica
Record: Amorica
Live Debut: 05/06/1994
Shows: 293 times played live
Notes: none at this time.

-------------------------------
The above information was taken from www.crowesbase.com

Tuning: DGDGBD (Open G)

This is Rich Robinson's part only.

Intro:
D-----------------------------------|
B-----------------------------------|
G--5-5-x-x-x-x-x-x-x-x-x-x-x-x-x-5--| x2
D--3-3-x-x-x-x-x-x-x-x-x-x-x-x-x----|
G--x-x-x-x-x-x-x-x-x-x-x-x-x-x-x----|
D--5-5-x-x-x-x-x-x-x-x-x-x-x-x-x----|

D-------------------------------------|
B-------------------------------------|
G--5-5-x-x-x-x-x-x-x-x-x-x-------5-5--|
D--3-3-x-x-x-x-x-x-x-x-x-x---3h5-5-5--|
G--x-x-x-x-x-x-x-x-x-x-x-x---4h5-5-5--|
D--5-5-x-x-x-x-x-x-x-x-x-x-5----------|

D------------------------------------|
B------------------------------------|
G--4-5-x-x-x-x-x-x-x-x-x-x-x-x--5----|
D--3-3-x-x-x-x-x-x-x-x-x-x-x-x----3--|
G--x-x-x-x-x-x-x-x-x-x-x-x-x-x-------|
D--5-5-x-x-x-x-x-x-x-x-x-x-x-x----5--|

D---------------------------------|
B---------------------------------|
G--5-5-x-x-x-5-5-5-x-x-x-------5--|
D--3-3-x-x-x-3-3-3-x-x-x---3h5-5--|
G--x-x-x-x-x-x-x-x-x-x-x---4h5-5--|
D--5-5-x-x-x-5-5-5-x-x-x-5--------|

D-----------------------------------|
B-----------------------------------|
G--4-5-x-x-x-x-5-5-x----------------|
D--3-3-x-x-x-x-3-3-x-----0---0------|
G--x-x-x-x-x-x-x-x-x-----0-3-0------|
D--5-5-x-x-x-x-5-5-x-0-2-------3-0--|

D-----------------------------------|
B-----------------------------------|
G--5-5-x-x-x-x-5-5-x-x-x-x-x-x-x-x--| x2
D--3-3-x-x-x-x-3-3-x-x-x-x-x-x-x-x--|
G--x-x-x-x-x-x-x-x-x-x-x-x-x-x-x-x--|
D--5-5-x-x-x-x-5-5-x-x-x-x-x-x-x-x--|

D---------------------------------------------------------------|
B------------------------0--------------------------------------|
G--5-5-x-x-x-x-5-5-----0---------5-5-x-x-x-x-5-5-x-x-x-x--------|
D--3-3-x-x-x-x-3-3-0-2-0---0---5-3-3-x-x-x-x-3-3-x-x-x-x-----5--|
G--x-x-x-x-x-x-x-x-----------4-5-x-x-x-x-x-x-x-x-x-x-x-x-3p0-0--|
D--5-5-x-x-x-x-5-5---------------5-5-x-x-x-x-5-5-x-x-x-x--------|

Verse:
D-----------------------------------|
B-----------------------------------|
G--5-5-x-x-x-x-5-5-x-x-x-x-x-x-x-x--|
D--3-3-x-x-x-x-3-3-x-x-x-x-x-x-x-x--|
G--x-x-x-x-x-x-x-x-x-x-x-x-x-x-x-x--|
D--5-5-x-x-x-x-5-5-x-x-x-x-x-x-x-x--|

D-----------------------------------|
B-----------------------------------|
G--5-5-x-x-x-x-5-5-x-x-x-------5-5--|
D--3-3-x-x-x-x-3-3-x-x-x---3h5-5-5--|
G--x-x-x-x-x-x-x-x-x-x-x---4h5-5-5--|
D--5-5-x-x-x-x-5-5-x-x-x-5----------|

D-----------------------------------|
B-----------------------------------|
G--5-5-x-x-x-x-5-5-x-x-x-x-x-x-x-x--|
D--3-3-x-x-x-x-3-3-x-x-x-x-x-x-x-x--|
G--x-x-x-x-x-x-x-x-x-x-x-x-x-x-x-x--|
D--5-5-x-x-x-x-5-5-x-x-x-x-x-x-x-x--|

D-----------------------------------|
B-----------------------------------|
G--5-5-x-x-x-x-5-5-x-0---0-3-0---0--|
D--3-3-x-x-x-x-3-3-x-0---0---0-3-0--|
G--x-x-x-x-x-x-x-x-x-0---0-3-0---0--|
D--5-5-x-x-x-x-5-5-x-0-2-------3-0--|

Chorus:
D------------------------------------------|
B-----------3--0-----------x-x-2-3-2-3--2--|
G-----------3--0-----------x-x-0-0-0-0--0--| x3
D--3--5-x-x-3--0-x-x-3--5--x-x-2-3-2-3--2--|
G--5--7-x-x-3--0-x-x-5--7------------------|
D--3--5-x-x------x-x-3--5------------------|

The timing for the last measure of the above riff is weird.  Listen to the song to get 
right.

D------------------------------------------------------------|
B-----------3--0---------------------------------------------|
G-----------3--0--------------------------------------0------|
D--3--5-x-x-3--0-x-x-3-3--x-x--2-2--x-x--3-3----------0---0--|
G--5--7-x-x-3--0-x-x-5-5--x-x--4-4--x-x--5-5------0-3-0---0--|
D--3--5-x-x------x-x-3-3--x-x--2-2--x-x--3-3--0-2-------3-0--|

Solo Rhythm:
D-----
B-----
G--0--
D--3--
G--5--
D-----

It sounds like he's just repeating this chord throughout the solo.  If he's doing 
more involved, I can't hear it.
Добавлено: 30.03.2012
Другие материалы по этой песне:

Страница создана 13.03.2012
http://primanota.ru/black-crowes/gone-chords.htm
Привет, Гость.
Предлагаем пройти революционный курс по гитаре.
Подарок от PrimaNota.Ru, забирай!