PrimaNota.ru - самый крупный в мире бесплатный архив песенных текстов, аккордов, табулатур и нот


Black Crowes - Go Faster - текст песни, таба, видео

Регистрация Запомнить меня
Войти через:  Facebook Google Twitter Vk Yandex Mail.ru

Black Crowes - Go Faster - текст песни, таба, видео

Печатать
Просмотров: 142
Авторы: Rich Robinson, Chris Robinson

The Black Crowes
Song Title: Go Faster
TBC Original? Yes
Written By: Chris and Rich Robinson
Recording Session: By Your Side
Record: By Your Side
Live Debut: 07/10/1998
Shows: 154 times played live
Related Song: Sad Brown Eyes
Notes: The same song as Sad Brown Eyes but with a different chorus. A studio version and 
live version (from January 27, 1999) were included on "Souled Out Live", released by 
in 1998.

-------------------------------------
The above (abridged) information was taken from www.crowesbase.com

Tuning: DGDGBD (Open G)

Once again, thanks to the awful mixing on the By Your Side album, a lot of these guitar 
are buried.  I did the best I could to make out what's being played, or at least come up 
something close.

Intro/Verse:
D-------------------------------------------------------------|
B-------------------------------------------------------------|
G-------------------------------------------------------------|
D--7-9-10-9-7-9-7-x-x-x--7-7-9-7-9----7--9-7-9-7-7----7--7-9--|
G--7-7--7-7-7-7-7-x-x-x--7-7-7-7-7----7--7-7-7-7-7----7--7-7--|
D----------------------------------9---------------9----------|

Pre-Chorus:
D------------------------------------------|
B--0--------1----------5-------6------8----|
G--0----------0----------0-------0------0--|
D--0----0h2-----2---/5------/7-----/9------|
G--0---------------------------------------|
D------------------------------------------|

D----------------------------------------------------|
B------12-----------13-----------12-------10-8-10-8--|
G---------0------------0------------0------0-0--0-0--|
D--/12------12--/14------14--/12------12--10-9-10-9--|
G----------------------------------------------------|
D----------------------------------------------------|

Chorus:
D----------------------------------------|
B--6----5----0--5--5--5-5--0--5--5--5-5--|
G--5----5----0--5--5--5-5--0--5--5--5-5--| x3
D--7----5----0--5--5--5-5--0--5--5--5-5--|
G--5----5----0--5--5--5-5--0--5--5--5-5--|
D----------------------------------------|

D--------------------------------------------|
B--6----5----0--5--5--5-5--0--5-5-5-6-6-6-7--|
G--5----5----0--5--5--5-5--0--5-5-5-6-6-6-7--|
D--7----5----0--5--5--5-5--0--5-5-5-6-6-6-7--|
G--5----5----0--5--5--5-5--0--5-5-5-6-6-6-7--|
D--------------------------------------------|

Solo Rhythm:

D-----------------------------------|
B-----------------------------------|
G----3-3---3-3---3-3---3---3-----3--| x4
D----2-2---2-2---2-2---2---2-----3--|
G--0-----0-----0-----0---0---0-0-3--|
D-----------------------------------|

Rich plays some fills after hitting the Bb chord here, but they are nearly inaudible.  
fourth time through this phrase, hit a B chord:

D-----
B-----
G--4--
D--4--
G--4--
D-----

after the Bb, and then it's back to the verse rhythm.
Добавлено: 08.04.2012
Другие материалы по этой песне:

Страница создана 28.02.2012
http://primanota.ru/black-crowes/go-faster-chords.htm
Привет, Гость.
Предлагаем пройти революционный курс по гитаре.
Подарок от PrimaNota.Ru, забирай!