PrimaNota.ru - самый крупный в мире бесплатный архив песенных текстов, аккордов, табулатур и нот


Black Crowes - Feathers - таба, видео

Регистрация Запомнить меня
Войти через:  Facebook Google Twitter Vk Yandex Mail.ru

Black Crowes - Feathers - таба, видео

Печатать
Просмотров: 151
The Black Crowes
Song Title: Feathers
TBC Original? Yes
Written By: C.R & R.R.
Recording Session: Tall, Amorica
Record: Tall (released as "Lost Crowes")
Live Debut: 01/21/1995
Shows: 67 times played live
Notes: There are 6 known versions of this song.  Amazingly, all known 1994 versions of 
song circulate.

"There's one song called 'Feathers', though, that I really, really think is something 
- Chris Robinson, 4/30/94

------------------------
The above information was taken from www.crowesbase.com

Tuning: EADGBE (Standard)

Main Riff:
E-------------------------
B----------------------2--
G----------------------2--
D---------------2p0----0--
A---------0h2h3-----2--2--
E---0h2h3-----------------

Pre-chorus:
E--0----2--|
B--2----1--|
G--2----2--|
D--2----0--|
A--0-------|
E----------|

Chorus:
E--3--------3---------|
B--1--------0---------|
G--0--------0---------| x4
D--2--------0---------|
A--3--3-2-0-2----0-2--|
E-----------3--3------|

Then on the fourth time, instead of playing the G A B pickups, play the following...

E--------0--|
B--------0--|
G--------0--|
D--------2--|
A--------2--|
E--3-2-1-0--|

Interlude:
E--0----1-----3--------3--|
B--1----4-----0--------1--|
G--2----2-----0--------0--|
D--2----1-----0--3-2-0-2--|
A--0----3-----2--------3--|
E-------1-----3-----------|

This comes immediately of the last measure of the chorus.  On the last time through, 
playing the C chord, play the following...

E-------------0--|
B-------------0--|
G-------------0--|
D-------------2--|
A--2-0--------2--|
E------3--2-1-0--|
Добавлено: 09.06.2012
Другие материалы по этой песне:
  • Аккорды и текст

Страница создана 09.06.2012
http://primanota.ru/black-crowes/feathers-chords.htm
Привет, Гость.
Предлагаем пройти революционный курс по гитаре.
Подарок от PrimaNota.Ru, забирай!