PrimaNota.ru - самый крупный в мире бесплатный архив песенных текстов, аккордов, табулатур и нот


Black Crowes - Exit - таба, видео

Регистрация Запомнить меня
Войти через:  Facebook Google Twitter Vk Yandex Mail.ru

Black Crowes - Exit - таба, видео

Печатать
Просмотров: 127
The Black Crowes
Song Title: Exit
TBC Original? Yes
Written By: C.R & R.R.
Recording Session: Unknown
Record: Never Released
Live Debut: 07/26/1992
Shows: 37 times played live
Notes: Recorded at Kingsway Studios in New Orleans on October 11, 1992 on an off day
the High As The Moon Tour. It was also recorded at Alley Studios in North Hollywood in late
1993 during the rehearsals for Tall. The song was relegated the same fate as other Alley
recordings (Grinnin', One Cop Story, Painkiller and Wind And Wood Heart) and was
as a candidate for inclusion on the album.

Many live versions of this song have different lyrics, notably the 3/10/95 Chicago performance.

--------------------------
The above information was taken from www.crowesbase.com

Tuning: DGDGBD (Open G)

While this song is relatively simple to play, it's tough to make out exactly what Rich
doing on the recordings I have, so this will be an approximation.

Intro
D--------------------|
B------7--7-----7----|
G------5----0-0---0--|
D-------------5------|
G--7-7-7-------------|
D--------------------|

Chorus
D---------------------|
B---------------------|
G------5---0---4-0-0--|
D------------0-----0--|
G------5-------4---0--|
D--0-0---0---------5--|

Verse
D-------------------------------------------|
B-------------------------------------------|
G------x-x-----x-x-----x-x-------------x-x--|
D------x-x-5-7-x-x-----x-x-5-7-5-7-5-7-x-x--|
G------x-x-5-7-x-x-----x-x-5-7-5-7-5-7-x-x--|
D--3-5-------------3-5----------------------|

I sometimes throw in some open chords in place of the muted notes during the verse.

Solo rhythm
D-------------------------------------------|
B-------------------------------------------|
G------x-x-----x-x-----x-x-------------x-x--|
D------x-x-5-7-x-x-----x-x-5-7-5-7-5-7-x-x--| x2
G------x-x-5-7-x-x-----x-x-5-7-5-7-5-7-x-x--|
D--3-5-------------3-5----------------------|

D---------------------|
B------7--------7-----|
G------5--------5--0--|
D------7--------7--0--|
G--7-7-7----7-7-7--0--|
D---------------------|

It's hard to make out exactly what Rich is playing during the second part of the solo
but it sounds very similar to the intro.  I can't tell if he's just hitting the chord or
the same phrase as in the intro, but either way, the figure is two measures, with an
G chord added on the last beat of the second measure.

D---------------------|
B---------------------|
G------5---0---4-0-0--|
D------------0-----0--|
G------5-------4---0--|
D--0-0---0---------5--|

The final part of the guitar solo is played over the chorus riff, which then leads back
a final chorus.

Outro
D------------------------------------------------------|
B------------------------------------------------------|
G------x-x-----x-x-----x-x--------------------------0--|
D------x-x-5-7-x-x-----x-x--5-7-5-7-5-7-5-7-5-7-5-7-0--|
G------x-x-5-7-x-x-----x-x--5-7-5-7-5-7-5-7-5-7-5-7-0--|
D--3-5-------------3-5---------------------------------|

Play this once directly after the last chorus, and immediately follow it with the next part:

D-------------------------------|
B-------------------------------|
G----------------------------0--|
D--7-5-7-5-7-5-7-5-7-5-7-5-7-0--|
G--7-5-7-5-7-5-7-5-7-5-7-5-7-0--|
D-------------------------------|
Добавлено: 11.07.2012
Другие материалы по этой песне:
  • Аккорды и текст

Страница создана 11.07.2012
http://primanota.ru/black-crowes/exit-chords.htm
Привет, Гость.
Предлагаем пройти революционный курс по гитаре.
Подарок от PrimaNota.Ru, забирай!