PrimaNota.ru - самый крупный в мире бесплатный архив песенных текстов, аккордов, табулатур и нот


Black Crowes - Evil Eye - текст песни, таба, видео

Регистрация Запомнить меня
Войти через:  Facebook Google Twitter Vk Yandex Mail.ru

Black Crowes - Evil Eye - текст песни, таба, видео

Печатать
Просмотров: 146
The Black Crowes
Song Title: Evil Eye
TBC Original? Yes
Written By: C.R & R.R.
Recording Session: Tall, Three Snakes and One Charm
Record: Tall (released as "Lost Crowes"), Three Snakes and One Charm
Live Debut: 01/31/1995
Shows: 79 times played live
Notes: This song was first recorded during the sessions for Tall and was to be included 
the album. It was not used on Amorica, but it was played occasionally throughout the 
Amorica or Bust and H.O.R.D.E. tours.

The song was then rearranged and re-recorded during the sessions for Three Snakes & One 
The Tall version has some different lyrics than the Three Snakes & One Charm version, 
a completely different chorus.

--------------------------------
The above information was taken from www.crowesbase.com

Intro
D-----------------------|
B-----------------------|
G--------------10-------| x8
D----9-10-9-10----10-9--|
G--0--------------------|
D-----------------------|

Verse
D-------------------------------------------------|
B--0--1--0--1------3-----0---5-----3-----1-----0--|
G--0--0--0--0--------0---0-----0-----0-----0---0--|
D--0--0--0--0-------------------------------------|
G--0--2--0--2----3---------5-----4-----2-----0----|
D----------------------3--------------------------|

D--------------------------------------------|
B--0--1------3-----0----5-----3-----1-----0--|
G--0--0--------0---0------0-----0-----0---0--|
D--0--0--------------------------------------|
G--0--2----3---------5------4-----2-----0----|
D----------------3---------------------------|

D--------------------------------------------|
B----0---1-----3-----0---5----3-----1-----0--|
G----0-----0-----0---0-----0----0-----0---0--|
D--------------------------------------------|
G--0---2-----3---------5-----4----2-----0----|
D------------------3-------------------------|

"A little bliss forever"
D----------------------------------|
B----------------------------------|
G----------3---------4-5-4--6-7-6--| x2
D--2-3-2-3---3-2-----4-5-4--6-7-6--|
G-----------------0--4-5-4--6-7-6--|
D----------------------------------|

Repeat this figure, but leave off the chords on the repeat and head straight into the chorus.

Chorus
D-------------------|
B-------------------|
G----0---0---0---0--|
D-------------------|
G-------------------|
D--3---2---1---5----|

Interlude
D-----------------------------------------------------------------------------------------------|
B-----------------------------------------------------------------------------------------------|
G--------------------------------------------------------------------------------------------0--|
D-----12--------12--------12----12----12----12----12----12----12----12----12----12----12----12--|
G--11----11--12----12--13----13----14----14----15----15----15----15----15----15----15----15-----|
D-----------------------------------------------------------------------------------------------|

This part can be played at a few positions on the neck, but I like this one the best for 
strange reason.
Добавлено: 28.04.2012
Другие материалы по этой песне:
  • Аккорды и текст

Страница создана 21.03.2012
http://primanota.ru/black-crowes/evil-eye-chords.htm
Привет, Гость.
Предлагаем пройти революционный курс по гитаре.
Подарок от PrimaNota.Ru, забирай!