PrimaNota.ru - самый крупный в мире бесплатный архив песенных текстов, аккордов, табулатур и нот


Black Crowes - Could I've Been So Blind - текст песни, таба, видео

Регистрация Запомнить меня
Войти через:  Facebook Google Twitter Vk Yandex Mail.ru

Black Crowes - Could I've Been So Blind - текст песни, таба, видео

Печатать
Просмотров: 112
Авторы: Rich Robinson, Chris Robinson

The Black Crowes
Song Title: Could I've Been So Blind
TBC Original? Yes
Written By: C.R & R.R.
Recording Session: Shake Your Money Maker
Record: Shake Your Money Maker
Live Debut: 04/01/1990
Shows: 96 times played live
Notes: "Sometimes when you got it good, you know it. And then you go and wreck it." (Chris)

----------------------------
The above info was taken from www.crowesbase.com

TUNING: EADGBE (Standard)

INTRO:
E--------------------------------|
B--------------------------------|
G------4------------4---------4--|
D--4h6-4-6-4----4h6-4-6-4--2--4--|
A--4h6---6-4----4h6---6-4--2--2--|
E--------------------------------|

VERSE:
E-----------------------------------|
B-----------------------------------|
G------4------------4---------4--4--| x3
D--4h6-4-6-4----4h6-4-6-4--2--4--4--|
A--4h6---6-4----4h6---6-4--2--2--2--|
E-----------------------------------|

E-----------------------------|
B-----------------------------|
G------4------------4---------|
D--4h6-4-6-4----4h6-4-6-4--2--|
A--4h6---6-4----4h6---6-4--2--|
E-----------------------------|

E------------------------------------|
B------------------------------------|
G------------------------------------|
D-----------------------------7-7-8--|
A--9-9-11-9-9-9-11-9-9-9-11-9-7-7-8--|
E--7-7--7-7-7-7--7-7-7-7--7-7-5-5-6--|

E-------------------------------------|
B-------------------------------------|
G-------------------------------------| x3
D--9---------------------------7-7-8--|
A--9--9-11-9-9-9-11-9-9-9-11-9-7-7-8--|
E--7--7--7-7-7-7--7-7-7-7--7-7-5-5-6--|

E-----------------------------|
B-----------------------------|
G-----------------------------|
D--9--------------------------|
A--9--9-11-9-9-9-11-9-9-9-11--|
E--7--7--7-7-7-7--7-7-7-7--7--|

E-----------------------------------|
B-----------------------------------|
G------4------------4---------4--4--|
D--4h6-4-6-4----4h6-4-6-4--2--4--4--|
A--4h6---6-4----4h6---6-4--2--2--2--|
E-----------------------------------|

E-----------------------------|
B-----------------------------|
G------4------------4---------|
D--4h6-4-6-4----4h6-4-6-4--2--|
A--4h6---6-4----4h6---6-4--2--|
E-----------------------------|

E------------------------------------|
B------------------------------------|
G------------------------------------|
D-----------------------------7-7-8--|
A--9-9-11-9-9-9-11-9-9-9-11-9-7-7-8--|
E--7-7--7-7-7-7--7-7-7-7--7-7-5-5-6--|

E-------------------------------------|
B-------------------------------------|
G-------------------------------------| x3
D--9---------------------------7-7-8--|
A--9--9-11-9-9-9-11-9-9-9-11-9-7-7-8--|
E--7--7--7-7-7-7--7-7-7-7--7-7-5-5-6--|

E--------------------------------------|
B--------------------------------------|
G--------------------------------------|
D--9-----------------------------------|
A--9--9-11-9-9-9-11-9-9-9-11-9-9-9-11--|
E--7--7--7-7-7-7--7-7-7-7--7-7-7-7--7--|

CHORUS:
E----------0--------------------------------------|
B----------0--------------------------------------|
G-------------------------------------------------| x4
D--4----2-----9-----------------------------------|
A--4----2-----9--9-11-9-9-9-11-9-9-9-11-9-9-9-11--|
E--2----0-----7--7--7-7-7-7--7-7-7-7--7-7-7-7--7--|

SOLO RHYTHM:
E----------|
B--7-------|
G--7-------| x8
D--7----9--|
A--5----9--|
E-------7--|

After the solo, the chorus is repeated twice then back into the next verse...

E-----------------------------------|
B-----------------------------------|
G------4------------4---------4--4--| x2
D--4h6-4-6-4----4h6-4-6-4--2--4--4--|
A--4h6---6-4----4h6---6-4--2--2--2--|
E-----------------------------------|

E-------------------------------------|
B-------------------------------------|
G-------------------------------------| x5
D--9---------------------------7-7-8--|
A--9--9-11-9-9-9-11-9-9-9-11-9-7-7-8--|
E--7--7--7-7-7-7--7-7-7-7--7-7-5-5-6--|

CHORUS x4

E-----------------------------------|
B-----------------------------------|
G------4------------4---------4--4--|
D--4h6-4-6-4----4h6-4-6-4--2--4--4--|
A--4h6---6-4----4h6---6-4--2--2--2--|
E-----------------------------------|

E--------------------------------------|
B-----------------------------7-7------|
G------4----------------4-6b8---8r6-4--|
D--4h6-4-6-4----4h6-4h6-------------4--|
A--4h6---6-4----4h6-----------------2--|
E--------------------------------------|
Добавлено: 27.06.2013
Другие материалы по этой песне:
  • Аккорды и текст

Страница создана 19.03.2012
http://primanota.ru/black-crowes/could-ive-been-so-blind-chords.htm
Привет, Гость.
Предлагаем пройти революционный курс по гитаре.
Подарок от PrimaNota.Ru, забирай!