PrimaNota.ru - самый крупный в мире бесплатный архив песенных текстов, аккордов, табулатур и нот


Black Crowes - By Your Side - текст песни, таба, видео

Регистрация Запомнить меня
Войти через:  Facebook Google Twitter Vk Yandex Mail.ru

Black Crowes - By Your Side - текст песни, таба, видео

Печатать
Просмотров: 164
Авторы: Rich Robinson, Chris Robinson

ARTIST: The Black Crowes
SONG: BY YOUR SIDE
ALBUM: the 1999 Album BY YOUR SIDE
TUNNING: OPEN G (LOW TO HIGH) D G D G b d
TABBED BY: INDIE NATION


Words and Music by Chris Robinson & Rich Robinson

Gtr I (D G D G B D) - 'Chris Robinson - Rhythm w/dist'
Gtr II (D G D G B D) - 'Eddie Harsch - Lead w/dist'
Gtr III (D G D G B D) - 'Eddie Harsch - Rhythm w/dist'

Intro
  Q=104
 4/4
  Gtr II
                                                    ~
  W                          E     +E  E E     +E   Q  E
|-------------------------|------------------------------|
|-------------------------|-10b12r(10)-7------------7--7-|
|-------------------------|--------------9b11==(9)r------|
|-------------------------|------------------------------|
|-------------------------|------------------------------|
|-------------------------|------------------------------|
|                         |-Riff A
| Gtr I
|                  ~                                ~
| E    +E  E E +E  Q  S S    E     +E  E E     +E   Q  E
|-------------------------|------------------------------|
|-------------------------|------------------------------|
|-9b11r(9)-7--------------|--9b11r=(9)-7------------7----|
|------------9-(9)-7--7h9-|--------------9-----(9)-----9-|
|-------------------------|------------------------------|
|-------------------------|------------------------------|


                                                                  Gtr III
   Q       E  E    E     E    E     E    +E  E    +E  E    E Q.
|---------12-12---------12------------|-------------------------------|
|-10b12-----------10b12------10b12-10-|-(10)--------------------------|
|-------------------------------------|------9b11r(9)-9b11-9-7--------|end Riff A
|-------------------------------------|-----------------------------7-|
|-------------------------------------|-------------------------------|
|-------------------------------------|-------------------------------|
|                                         H                Q      E E
|
|  Q       E  E a +E     E a  E     E    +E  E     E  E    E E  a E E
|-------------------------------------|-------------------------------|
|---------10-10------------7h=9-----7-|--(7)--------------------------|
|--9b11=========9r(9)----7----7-----7-|--(7)-7--------7-------------7-|
|--------------------------7h=9-----7-|--(7)-7-----9--7---------7h9---|
|-------------------------------------|--------------------9-7--------|
|-------------------------------------|-------------------------------|


    Gtr III
    a Q  E E +E  E a e E   a E E a E E +E  E a e E
||-----------------------|-------------------------|
||o----------------------|-------------------------|
||-------7-------------7-|-----7-----------------7-|
||--7h9----7-(7)---7h9---|-7h9---7h9-7-(7)---7h9---|
||o--------------7-------|-----------------7-------|
||-----------------------|-------------------------|
||-Rhy Fig 1A
|
|   Gtr I
|   a Q  E E +E  E a E E   a E E a E E +E  E a e E
||-----------------------|-------------------------|
||o------8-7-(7)---------|-------------------------|
||-------7-7-(7)-------7-|-----7-----7-(7)-------7-|
||--7h9----7-(7)---7h9---|-7h9---7h9-7-(7)---7h9---|
||o--------------7-------|-----------------7-------|
||-----------------------|-------------------------|
 |-Rhy Fig 1

                      |-3-|
  S S S S E S S S S E S S S E
|-----------------------------|
|-----------------------------|
|-----7h9-7-----7h9-7---------|
|-7h9-------7h9-------7h9p7---|
|---------------------------7-|
|-----------------------------|
|              end Rhy Fig 1A-|
|
|                     |-3-|
| S S S S E S S S S E S S S E
|-----------------------------|
|-----------------------------|
|-----7h9-7-----7h9-7---------|
|-7h9-------7h9-------7h9p7---|
|---------------------------7-|
|-----------------------------|
                end Rhy Fig 1-|

  1.                      2.
  +E  E e E e E   E E      E  E e E e E E E
|----------------------||-------------------||
|-------8---7-----8-7-o||-------8---7---8-7-||
|-------7---7-----7-7--||-------7---7---7-7-||
|-------9---7-----9-7--||-------9---7---9-7-||
|-(7)-7---7---7-------o||-(7)-7---7---7-----||
|----------------------||-------------------||
|
| +E  E e E e E a E E      E  E e E e E E E
|----------------------||-------------------||
|-------8---7---------o||-------8---7---8-7-||
|-------7---7-------7--||-------7---7---7-7-||
|-------9---7---7h9----||-------9---7---9-7-||
|-(7)-7---7---7-------o||-(7)-7---7---7-----||
|----------------------||-------------------||
                        |-Rhy Fill 1      --|

   Verses
    +E  E e E  e  E E E   +E  E e E e E E E
||----------------------|-------------------|
||o-(7)---8----7----8-7-|-(7)---8---7---8-7-|
||--(7)---7----7----7-7-|-(7)---7---7---7-7-|
||--(7)---9----7----9-7-|-(7)---9---7---9-7-|
||o-----7---7-----7-----|-----7---7---7-----|
||----------------------|-------------------|
||-Rhy Fig 2A                end Rhy Fig 2A-|
|
|    Q.     E +Q    E E   +E  E e E e E E E
||----------------------|-------------------|
||o--8------7-(7)-----7-|-(7)-7-8---7---8-7-|
||---9------7-(7)-----7-|-(7)-7-7---7---7-7-|
||---7------7-(7)---9-7-|-(7)-7-9---7---9-7-|
||o---------------------|---------7---7-----|
||----------------------|-------------------|
 |-Rhy Fig 2                  end Rhy Fig 2-|


Rhy Fig 2 + 2A x2



w/Rhy Fig 2
 1.
  +E  E e E  e  E E E   +E  E e E e E E E
|---------------------|--------------------|
|-(7)---8----7----8-7-|-(7)---8---7---8-7--|
|-(7)---7----7----7-7-|-(7)---7---7---7-7--|
|-(7)---9----7----9-7-|-(7)---9---7---9-7--|
|-----7---7-----7-----|-----7---7---7------|
|---------------------|--------------------|

w/Rhy Fig 1 + 1A
  Gtr II
    ~~~~~~~~~~~~      ~~~~~~~~~~
  a Q.    E +E  E   E E     +H           Q      E E
|-----------------------|-------------------------------|
|-----------------------|-------------------------------|
|-----------------------|-------------------------9b11==|
|-7h9-----9-(9)-------7-|---(7)-------------------------|
|-----------------------|-------------------------------|
|-----------------------|-------------------------------|

                                               |-w/Rhy Fill 1
                                                  ~~~     ~~~~~~
  +Q         S S S S E       +S  S S   S   S S    Q     E E +Q.     +E
|----------------------------------------------|--------------------------||
|------------7h8p7-----------------------------|-------10----------------o||
|-(9)r-------------9-9pb11r==(9)-7-9---9p==7---|--7-------7-(7)-----(7)\--||
|--------------------------------------------9-|--------------------------||
|----------------------------------------------|-------------------------o||
|----------------------------------------------|--------------------------||


  2.                   |-w/Rhy Fill 2
                                      ~~
   W                     E  S S S S E Q.     +E
|---------------------|---------------------------||
|---------------------|-----8s7-8s7---------------||
|---------------------|-------------7-7------(7)\-||
|---------------------|---------------------------||
|---------------------|---------------------------||
|---------------------|---------------------------||


 Chorus
  $
  Gtrs I, III
  E Q  E Q  Q    +Q   Q           E  Q       E   E Q  E Q  Q    +Q   Q  E Q  E
|--------------|-------------------------------|--------------|------------|
|--------------|------1-----------1--0---------|--------------|------1--1-0|
|---0----0--0--|-(0)--0-----------0--0---------|---0----0--0--|-(0)--0--0-0|
|-----------0--|-(0)--2-----------2--0---------|-----------0--|-(0)--2--2-0|
|-5----4----0--|-(0)-------------------------4-|-5----4----0--|-(0)--------|
|--------------|-------------------------------|--------------|------------|
|-Rhy Fig 3                      end Rhy Fig 3-|
|
| W               Q   E   +E     +E  E a +E  E
|--------------|---------------------0---------|
|--------------|---------------------0---------|
|--------------|--0---2b4r(2)b4==(2)---2r(2)-0-|
|--------------|--0----------------------------|
|--------------|--0----------------------------|
|--------------|-------------------------------|
               |-Gtr I sub on D.S.

                                        To Coda
  E Q  E Q  Q    +Q   Q  E Q  E   E Q  E Q  Q    +W
|--------------|----------------|--------------|--------|
|--------------|------1--1-0----|--------------|--------|
|---0----0--0--|-(0)--0--0-0----|---0----0--7--|-(7)----|
|-----------0--|-(0)--2--2-0----|-----------7--|-(7)----|
|-5----4----0--|-(0)----------4-|-5----4----7--|-(7)----|
|--------------|----------------|--------------|--------|


  Gtr I                   |-w/Riff A
                   ~                                ~
  E    +E  E E +E  Q  S S    E     +E  E E     +E   Q  E
|-------------------------|------------------------------|
|-------------------------|------------------------------|
|-9b11r(9)-7--------------|--9b11r=(9)-7------------7----|
|------------9-(9)-7--7h9-|--------------9-----(9)-----9-|
|-------------------------|------------------------------|
|-------------------------|------------------------------|


                                        H                Q      E E
 
   Q       E  E a +E     E a  E     E   +E  E     E  E    E E  a E E
|-------------------------------------|--------------------------------||
|---------10-10------------7h=9-----7-|-(7)----------------------------||
|--9b11=========9r(9)----7----7-----7-|-(7)-7--------7-------------7---||
|--------------------------7h=9-----7-|-(7)-7-----9--7---------7h9-----||
|-------------------------------------|-------------------9-7----------||
|-------------------------------------|--------------------------------||


   Verse 3
Rhy Fig 2 + 2A x3


w/Rhy Fig 2 + 2A x5
  Gtr II
                       ~~~~~~~~~              ~~~~~~~~
   H         S  S e  E E   +E  E  E  E  E E E E   +Q    +E  E  H
|------------------------|----------------------|-----------------------|
|------------------------|----------------------|-----------------------|
|----------------------7-|-(7)S5-\5-\5-\5---7-7-|-(7)---(7)-------------|
|-----------10s=9-7-/9---|----------------7-----|-----------------------|
|------------------------|----------------------|-----------------------|
|------------------------|----------------------|-----------------------|




  +E  E e E e E E E   +E  E e E  e  E E E   +E  E e E e E E E
|-------------------|---------------------|-------------------|
|-(7)---8---7---8-7-|-(7)---8----7----8-7-|-(7)---8---7---8-7-|
|-(7)---7---7---7-7-|-(7)---7----7----7-7-|-(7)---7---7---7-7-|
|-(7)---9---7---9-7-|-(7)---9----7----9-7-|-(7)---9---7---9-7-|
|-----7---7---7-----|-----7---7-----7-----|-----7---7---7-----|
|-------------------|---------------------|-------------------|


  Gtr II
                                  ~~~~~~~~~~~~~~~
   H         Q    E  E   +E  E E  E  +Q.      E
|----------------------|------------------------|
|-------------------/8-|-(8)s7s8s10-(10)-----10-|
|----------------------|------------------------|
|----------------------|------------------------|
|----------------------|------------------------|
|----------------------|------------------------|



                                           D.S. al Coda
 ~~~~~~                                          ~
   +Q      E  S  S  E   E  E  E    +E  S S S S E H
|------------12-12--------------|------------------------||
|-(10)---/12-------12s=10-10-10-|-(10)-8s7-8s7-----------||
|-------------------------------|--------------7-7-------||
|-------------------------------|------------------------||
|-------------------------------|------------------------||
|-------------------------------|------------------------||


                     Guitar Solo
  &
  Gtr II
                                     ~~~~~~~~             ~
   H      E   Q.       H       E E E E   +Q    E S S  E E Q
|------------------||------------------|---------------------|
|------------------||-/7-------7s5-----|-------7s5-----------|
|------------------||--------------7-7-|-(7)-------4-/7------|
|------------------||------------------|----------------7-7--|
|------------<4>---||------------------|---------------------|
|--------<2>-------||------------------|---------------------|
|
| Gtrs I, III
| +W                   E E E E E E Q     +E  E Q      Q   Q
|------------------||------------------|---------------------|
|-(7)--------------||--------------0---|-(0)-7-8------7---7--|
|-(7)--------------||--5-7---4-5---0---|-(0)-7-7------7---7--|
|-(7)--------------||--5-7---4-5---0---|-(0)-7-9------7---7--|
|------------------||--5-7---4-5-0-----|---------------------|
|------------------||------------------|---------------------|
                    |-Rhy Fig 4                end Rhy Fig 4-|

w/Rhy Fig 4 x3
   ~~~~         ~~~         ~~~         ~~~
  +E    Q.     +Q.     E   +Q.     S S +Q   S S S S
|------------------------|--------------------------|
|------/7------(7)-------|--------------------------|
|----------------------7-|-(7)------------------7h9p|
|-(7)\-------------------|---------5s7-(7)--7h9-----|
|------------------------|--------------------------|
|------------------------|--------------------------|


  S S S S S S S S S S S S S S S S
|--------------------------------------|
|--------------------------------------|
|-7-------7h9p7-------7h9p7---7-9b11===|
|---9p7---------9-7h9-------9----------|
|-------9------------------------------|
|--------------------------------------|


  +E   S S  S S +E      +E   S S  S S  a E
|------------------------------------------|
|-----10---10---------------10---10----7s8-|
|-(9)----9----9r(9)b11==(9)----9----9r-----|
|------------------------------------------|
|------------------------------------------|
|------------------------------------------|


          ~~~~~~~                      ~~~~~~~
  +E  E E E +E  E  Q     +E   a  E  E  E  +Q    +E   E
|-----------------19--|-(19)----------------------------||
|-(8)s7---------------|------17s19----------------------||
|-------7-7-(7)s5-----|------------19-19-(19)--(19)\----||
|---------------------|---------------------------------||
|---------------------|---------------------------------||
|---------------------|---------------------------------||


 Chorus
w/Rhy Fig 3 x3
  Gtr I
  E Q  E Q  Q    +Q   E   +E     E E a +E  E   E Q  E Q  Q
|--------------|-------------------0---------|--------------|
|--------------|-------------------0---------|--------------|
|---0----0--0--|-(0)--2b4r(2)b4==2---2r(2)-0-|---0----0--0--|
|-----------0--|-(0)-------------------------|-----------0--|
|-5----4----0--|-(0)-------------------------|-5----4----0--|
|--------------|-----------------------------|--------------|


  +E  E    S S +S  S S S S S E E   E Q  E Q  Q
|--------------------------------|--------------|
|----------3---------------------|--------------|
|-(0)-2b4====2r(2)p0-2p0-----0---|---0----0--0--|
|-(0)--------------------2p0---0-|-----------0--|
|-(0)----------------------------|-5----4----0--|
|--------------------------------|--------------|


  +E    E  S  S  S  S  S  S  S  S  E E
|--------------------------------------|
|---------12-------10-------12-12-12---|
|-(0)----------------------------------|
|-(0)-/12----12s10----10s12-12-12-12---|
|-(0)----------------------------------|
|--------------------------------------|


  Gtrs I, III
  E Q  E Q  Q    +E  E E E E E E E
|--------------|-------------------|
|--------------|-------------------|
|---0----0--0--|-(0)-0-0-0-0-0-0-0-|
|-----------0--|-(0)-0-2-0-2-0-2-0-|
|-5----4----0--|-(0)-0-0-0-0-0-0-0-|
|--------------|-------------------|

w/Rhy Fig 3 x3
  Gtr I
  E Q  E Q  Q    +Q   Q  E Q  E   E Q  E Q  Q
|--------------|----------------|--------------|
|--------------|------1--1-0----|--------------|
|---0----0--0--|-(0)--0--0-0----|---0----0--0--|
|-----------0--|-(0)--2--2-0----|-----------0--|
|-5----4----0--|-(0)----------4-|-5----4----0--|
|--------------|----------------|--------------|


  +E   S  S  +E   E  E  E  E E   E Q  E Q  Q    +E  E   +E     +E  E a +E  E E
|------------------------------|--------------|--------------------0-------|
|----------------13------------|--------------|--------------------0-------|
|-(0)---------------12-12-12---|---0----0--0--|-(0)-2b4r(2)b4==(2)-2r(2)-0-|
|-(0)-12h14-(14)----14-12-12---|-----------0--|-(0)------------------------|
|-(0)--------------------------|-5----4----0--|-(0)-----------------------4|
|------------------------------|--------------|----------------------------|



  Gtrs I, III                                       Gtr I
  E Q  E Q  Q    +H     +Q.   +E     E E E E E E Q    +E  E Q  Q  Q
|--------------|-------------------|----------------|-----------------|
|--------------|-------------------|-------------0--|-(0)-7-8--7--7---|
|---0----0--7--|-(7)----(7)---(7)\-|-5-7---4-5---0--|-(0)-7-7--7--7---|
|-----------7--|-(7)----(7)---(7)\-|-5-7---4-5---0--|-(0)-7-9--7--7---|
|-5----4----7--|-(7)----(7)---(7)\-|-5-7---4-5-0----|-----------------|
|--------------|-------------------|----------------|-----------------|

w/Rhy Fig 4
  Gtr II
  W                 Q    E  E  E E E.  S
|----------------|---------19-19-xsx/-17-||
|----------------|---------------xsx/----||
|----------------|-----------------------||
|----------------|-----------------------||
|----------------|-----------------------||
|----------------|-----------------------||


 Outro - Solo
w/Rhy Fig 4 x6
      ~~           ~~~~~~~~~~~~~~~          ~~~~~~~~
   E  E  S  E.    +Q     Q     E   E  E  E  Q   Q
|-17-17-17s19----(19)---19--|-19-------------------|
|---------------------------|--------------19------|
|---------------------------|-----19s18s19-----19--|
|---------------------------|----------------------|
|---------------------------|----------------------|
|---------------------------|----------------------|


 ~~~~~~                                     ~~~~~~~
   +E   E  E  E  E  E  E  a  E    +Q     E  E  +Q     E  E
|------------------------------|----------------------------|
|------20-19s20s19-------------|--------------------/19-19--|
|-(19)-------------19-19-19s17-|-(17)s==19------------------|
|------------------------------|-----------19-(19)----------|
|------------------------------|----------------------------|
|------------------------------|----------------------------|


                             ~~~~~~~~~          ~~~          ~~~~~~~
   E   E  E  E   E  E  S  S  E    +E   S  S  S  E.  S  S  S  S  +E   S  S
|--------19-19-----19----------|------------------------------------------|
|-19-/19-------/19----19s17----|------------------------------------------|
|---------------------------19-|-(19)-19s17----19--19s17----19-(19)-19s17-|
|------------------------------|------------19-----------19---------------|
|------------------------------|------------------------------------------|
|------------------------------|------------------------------------------|


      ~~~                                                ~
   S  E.    S  S  S  S   E   E  E  E    +Q      E. S +E  E E   E
|------------------------------------|---------------------------|
|----------------------/19-/19-------|---------/8-------------/7-|
|----19----19s17-19s17---------19-19-|-(19)\-------------7-7\----|
|-19---------------------------------|-------------7-(7)---------|
|------------------------------------|---------------------------|
|------------------------------------|---------------------------|


                               ~
  +E  E E  E E E E E    E  E E E E   E E   E
|-----7-7----7-7-9s7-|-----------------0-/12-|
|-(7)-----/7---------|-/7s=5-------/10-------|
|--------------------|-------7-7-0-----------|
|--------------------|-----------------------|
|--------------------|-----------------------|
|--------------------|-----------------------|


        ~~~~~~~~~~~~~~~~~~~~~~~~~~         ~~~~~~~~
   +E   E  E  E  E  E  E  E    Q     S  S  E  +E   E E E
|-(12)-12-12-12-12-12-12-12-|-12-------------------------|
|---------------------------|-------12s10----------------|
|---------------------------|-------------12-(12)s10-0S7-|
|---------------------------|----------------------------|
|---------------------------|----------------------------|
|---------------------------|----------------------------|


   ~~~        ~~~~~~      ~~                ~
  +Q    S S S S +E  S S S E.    E   E E S S Q   E  E   +E  E E E  E E a Q
|----------------------------|-----------------------|---------------------:
|----------------------------|-\5--\5s7--------/7-/7-|-(7)-8-7s8-/7-7-7s8--:
|-(7)---7s5---7-(7)-7s5---7--|----------7-7-7--------|---------------------:
|-----------7-----------7----|-----------------------|---------------------:
|----------------------------|-----------------------|---------------------:
|----------------------------|-----------------------|---------------------:
|
|  E  E E   E    E  E   Q      +E   E Q     Q   Q       E  E E E  E E   Q
|----------------------------|-----------------------|---------------------:
|-----------------------0----|-(0)--7-8-----7---7----|------------------0--:
|--5--7-----4----5------0----|-(0)--7-7-----7---7----|--5--7---4--5-----0--:
|--5--7-----4----5------0----|-(0)--7-9-----7---7----|--5--7---4--5-----0--:
|--5--7-----4----5--0--------|-----------------------|--5--7---4--5-0------:
|----------------------------|-----------------------|---------------------:


   ~~~~~~~~~~~~~~~~
   W           +W            Q   Q  H
|------------:------------:--------------*|
|--8---------:-(8)--------:--------------*|
|------------:------------:--x\----------*|
|------------:------------:--x\----------*|
|------------:------------:--------------*|
|------------:------------:--------------*|
|
| +W           +W           +H      H
|------------:------------:--------------*|
|-(0)--------:-(0)--------:-(0)----------*|
|-(0)--------:-(0)--------:-(0)----------*|
|-(0)--------:-(0)--------:-(0)----------*|
|------------:------------:--------------*|
|------------:------------:--------------*|
Добавлено: 20.06.2012
Другие материалы по этой песне:

Страница создана 01.04.2012
http://primanota.ru/black-crowes/by-your-side-chords.htm
Привет, Гость.
Предлагаем пройти революционный курс по гитаре.
Подарок от PrimaNota.Ru, забирай!