PrimaNota.ru - самый крупный в мире бесплатный архив песенных текстов, аккордов, табулатур и нот


Black Crowes - Bring On Bring On - текст песни, таба, видео

Регистрация Запомнить меня
Войти через:  Facebook Google Twitter Vk Yandex Mail.ru

Black Crowes - Bring On Bring On - текст песни, таба, видео

Печатать
Просмотров: 137
The Black Crowes
Song Title: Bring On, Bring On
TBC Original? Yes
Written By: C.R & R.R.
Recording Session: Three Snakes and One Charm
Record: Three Snakes and One Charm
Live Debut: 07/05/1996
Shows: 90 times played live

----------------------------
The above information was taken from www.crowesbase.com

Tuning: DGDGBD (Open G)

Intro/Solo rhythm
D--0----0--|
B--0----0--|
G--6----4--|
D--7----5--|
G--7----5--|
D----------|

These are the chords used during the intro as well as underneath the guitar solo.
to the song for the strumming pattern.

Verse
D--0----0----0----0--|
B--8----6----4----4--|
G--0----0----0----5--|
D--9----7----5----5--|
G--0----0----0----0--|
D--------------------|

Chorus                                 |1st  |2nd
D--5--7--9-9--5--7--9/10\9--5--7--9-9--|--5--|--2--|
B--0--0--0-0--0--0--0-------0--0--0-0--|--0--|--0--|
G--------------------------------------|-----|-----|
D--5--7--9-9--5--7--9/10\9--5--7--9-9--|--5--|--2--|
G--------------------------------------|-----|-----|
D--5--7--9-9--5--7--9/10\9--5--7--9-9--|--5--|--2--|

Repeat this figure once, and on the second time through play the second ending.

Bridge
D----------------0----0--|
B----------------6----8--|
G----------------0----0--|
D--3----5\--2----8----9--|
G----------------0----0--|
D--3----5\--2------------|

This part comes directly out of a chorus, so hit the second repeat of the chorus I have
out above and then continue on to this.  Repeat the last two chords all the way through
"gift of sight/the baby's eye/darkness into light" part, and then return to the verse 
once for the ending of the song.
Добавлено: 21.07.2012
Другие материалы по этой песне:
  • Аккорды и текст

Страница создана 11.07.2012
http://primanota.ru/black-crowes/bring-on-bring-on-chords.htm
Привет, Гость.
Предлагаем пройти революционный курс по гитаре.
Подарок от PrimaNota.Ru, забирай!