PrimaNota.ru - самый крупный в мире бесплатный архив песенных текстов, аккордов, табулатур и нот


Black Crowes - Blackberry - текст песни, таба, видео

Регистрация Запомнить меня
Войти через:  Facebook Google Twitter Vk Yandex Mail.ru

Black Crowes - Blackberry - текст песни, таба, видео

Печатать
Просмотров: 181
The Black Crowes
Song Title: Blackberry
TBC Original? Yes
Written By: C.R & R.R.
Recording Session: Three Snakes and One Charm
Record: Three Snakes and One Charm
Live Debut: 12/19/1995
Shows: 119 times played live
Notes: Also released as the second single from Three Snakes & One Charm, featuring 
Somebody's On Your Case and Pimper's Paradise on the UK CD Single. A version from January 27, 
1999 was recorded and included on "Souled Out Live" released by Sony in 1998.

------------------------------
The above information was taken from www.crowesbase.com

TUNING: EADGBE (Standard)

INTRO:
E--------------------------------------|
B--------------------------------------|
G--------------------------------------|
D------3-3--------3-3-----3-3-----3-3--|
A------2-2--------2-2-----2-2-----2-2--|
E--3-3--------3-3-----3-3-----3-3------|

E-------------------|
B-------------------|
G-------------------|
D------3-3----------|
A------2-2----------|
E--3-3-----3-0-1-2--|

E----------------------------------|
B----------------------------------|
G----------------------------------| x2
D------3-3-----3-3-----3-3---------|
A------2-2-----2-2-----2-2---------|
E--3-3-----3-3-----3-3------0-1-2--|

VERSE 1:
E----------------------------------|
B----------------------------------|
G----------------------------------| x2
D------3-3-----3-3-----3-3---------|
A------2-2-----2-2-----2-2---------|
E--3-3-----3-3-----3-3------0-1-2--|

E--------------------------------------------------|
B--------------------------------------------------|
G--------------------------------------------------| x2
D------3-3-----3-3-----3-3--------3----3-----------|
A------2-2-----2-2-----2-2--------2----2-----------|
E--3-3-----3-3-----3-3------0-1-2-3----3----0-1-2--|

E----------------------------------|
B----------------------------------|
G----------------------------------| x2
D------3-3-----3-3-----3-3---------|
A------2-2-----2-2-----2-2---------|
E--3-3-----3-3-----3-3------0-1-2--|

E------------------------------------|
B------------------------------------|
G------------------------------------|
D------3-3-----3-3-----3-3--------3--|
A------2-2-----2-2-----2-2--------2--|
E--3-3-----3-3-----3-3------0-1-2-3--|

E--------------------|
B--------------------|
G--------------------|
D--------------------|
A-------------3-4-5--|
E--1--2-3-4-5--------|

CHORUS 1:
E---------------------------------------------------------------------|
B--5--/7--5-5--/7----3--3----1-------------------------------------1--|
G--5--/7--5-5--/7----5--5----3-------------------------------------3--|
D--5--/7--5-5--/7----4--4----2--3--3-3-3-3-3h5-3h5-3--3-3h5-3h5----2--|
A------------------5-5--5--3-3-----------------------------------3-3--|
E---------------------------------------------------------------------|

E----------------------------------------------------------------------|
B--5--/7--5-5--/7----3--3----1-----------------------------------------|
G--5--/7--5-5--/7----5--5----3-----------------------------------------|
D--5--/7--5-5--/7----4--4----2--3--3-3-3-3-3h5-3h5-3--3-3h5-3h5--------|
A------------------5-5--5--3-3-----------------------------------------|
E---------------------------------------------------------------0-1-2--|

VERSE 2:
E----------------------------------|
B----------------------------------|
G----------------------------------| x2
D------3-3-----3-3-----3-3---------|
A------2-2-----2-2-----2-2---------|
E--3-3-----3-3-----3-3------0-1-2--|

E--------------------------------------------------|
B--------------------------------------0-----------|
G--------------------------------------0-----------| x2
D------3-3-----3-3-----3-3--------3----3-----------|
A------2-2-----2-2-----2-2--------2----2-----------|
E--3-3-----3-3-----3-3------0-1-2-3----3----0-1-2--|

E------------------------------------|
B---------------------------------0--|
G---------------------------------0--|
D------3-3-----3-3-----3-3--------3--|
A------2-2-----2-2-----2-2--------2--|
E--3-3-----3-3-----3-3------0-1-2-3--|

E--------------------|
B--------------------|
G--------------------|
D--------------------|
A-------------3-4-5--|
E--1--2-3-4-5--------|

CHORUS 2:
E---------------------------------------------------------------------|
B--5--/7--5-5--/7----3--3----1-------------------------------------1--|
G--5--/7--5-5--/7----5--5----3-------------------------------------3--| x3
D--5--/7--5-5--/7----4--4----2--3--3-3-3-3-3h5-3h5-3--3-3h5-3h5----2--|
A------------------5-5--5--3-3-----------------------------------3-3--|
E---------------------------------------------------------------------|

E---------------------------------|
B--5--/7--5-5--/7----3--3----1----|
G--5--/7--5-5--/7----5--5----3----|
D--5--/7--5-5--/7----4--4----2-3--|
A------------------5-5--5--3-3-2--|
E------------------------------3--|

INTERLUDE:
E-----------------|
B-----------------|
G-----------------| x2
D-----------------|
A-----------------|
E--0-0-1-1-2-2-3\-|

E------------------------------------------------------|
B------------------------------------------------------|
G------------------------------------------------------|
D------------------------------------------------------|
A------------------------------------------------------|
E--0-0-1-1-2-2-3-3--1-3-3--1-3-3--1-3-3--1-3-3--1-3-3--|

E----------------|
B----------------|
G----------------|
D----------------|
A-----3---3-4-5--|
E--3----3--------|

FINAL CHORUS:
E---------------------------------------------------------------------|
B--5--/7--5-5--/7----3--3----1-------------------------------------1--|
G--5--/7--5-5--/7----5--5----3-------------------------------------3--|
D--5--/7--5-5--/7----4--4----2--3--3-3-3-3-3h5-3h5-3--3-3h5-3h5----2--|
A------------------5-5--5--3-3-----------------------------------3-3--|
E---------------------------------------------------------------------|

E-----------------------------------------------------------------------|
B--5--/7--5-5--/7----3--3----1---------------------------------------1--|
G--5--/7--5-5--/7----5--5----3---------------------------------------3--|
D--5--/7--5-5--/7----4--4----2--3--3-3-3-3-3h5-3h5-3h5p3h5p3h5p3h5---2--|
A------------------5-5--5--3-3-------------------------------------3-3--|
E-----------------------------------------------------------------------|

E---------------------------------------------------------------------|
B--5--/7--5-5--/7----3--3----1-------------------------------------1--|
G--5--/7--5-5--/7----5--5----3-------------------------------------3--|
D--5--/7--5-5--/7----4--4----2--3--3-3-3-3-3h5-3h5-3--3-3h5-3h5----2--|
A------------------5-5--5--3-3-----------------------------------3-3--|
E---------------------------------------------------------------------|

E-----------------------------------------------------------------------------|
B--5--/7--5-5--/7----3--3----1------------------------------------------------|
G--5--/7--5-5--/7----5--5----3------------------------------------------------|
D--5--/7--5-5--/7----4--4----2--3--3----3-3----3-3----3-3----3-3-3-3-3--------|
A------------------5-5--5--3-3--2--2----2-2----2-2----2-2----2-2-2-2-2--------|
E-------------------------------3--3--3-3-3--3-3-3--3-3-3--3-3-3-3-3-3-0-1-2--|

OUTRO:
E----------------------------------|
B----------------------------------|
G----------------------------------| x3
D------3-3-----3-3-----3-3---------|
A------2-2-----2-2-----2-2---------|
E--3-3-----3-3-----3-3------0-1-2--|

E-------------------------------------|
B-------------------------------------|
G----------------------------------0--|
D------3-3-----3-3-----3-3-----3---3--|
A------2-2-----2-2-----2-2-----2---2--|
E--3-3-----3-3-----3-3-----3-3---0-3--|
Добавлено: 30.06.2013
Другие материалы по этой песне:
  • Аккорды и текст

Страница создана 30.03.2012
http://primanota.ru/black-crowes/blackberry-chords.htm
Привет, Гость.
Предлагаем пройти революционный курс по гитаре.
Подарок от PrimaNota.Ru, забирай!