PrimaNota.ru - самый крупный в мире бесплатный архив песенных текстов, аккордов, табулатур и нот


Black Crowes - Been A Long Time Waiting On Love - текст песни, таба, видео

Регистрация Запомнить меня
Войти через:  Facebook Google Twitter Vk Yandex Mail.ru

Black Crowes - Been A Long Time Waiting On Love - текст песни, таба, видео

Печатать
Просмотров: 116
The Black Crowes
Song Title: Been A Long Time (Waiting On Love)
TBC Original? Yes
Written By: Chris and Rich Robinson
Recording Session: Cabin Fever
Record: Before The Frost...
Live Debut: 02/28/2009
Shows: 21 times played live
Notes: Recorded at Levon Helm's home studio, "The Barn" in Woodstock, NY in front of a
audience. It was recorded at each of the last three sessions.

Joe Magistro played percussion.

--------------------------------
The above information was taken from www.crowesbase.com

Tuning: CGCGA#E

Intro/Chorus:
E---------------------------------------|
A#--------------------------------------|
G------------------------------------0--|
C------------------------------------0--|
G---------3-5--------3-5--x-x-----------|
C---3-4-5------3-4-5----------0--3p0----|

E---------------------------------------|
A#--------------------------------------|
G---------------------------------------|
C---------------------------------------|
G---------3-5--------3-5--x-x-----------|
C---3-4-5------3-4-5----------0--3-2-0--|

E---------------------------------------|
A#--------------------------------------|
G------------------------------------0--|
C------------------------------------0--|
G---------3-5--------3-5--x-x-----------|
C---3-4-5------3-4-5----------0--3p0----|

E-------------------------|
A#---------------------0--|
G----------------------0--|
C----------------------x--|
G---------3-5--------3-5--|
C---3-4-5------3-4-5------|

Pre-Verse:
E---------------------------------|
A#--2-2-x-2--2-x-2--2-x-2--2-x-x--|
G---3-3-x-3--3-x-3--3-x-3--3-x-x--| x2
C---4-4-x-4--4-x-4--4-x-4--4-x-x--|
G---------------------------------|
C---------------------------------|

E----------------------------|
A#----5-4-2-----2-----2------|
G-------------3-----3---2----| x4
C-----------5-----4-------4--|
G----------------------------|
C---0------------------------|

Verse:
E----------------------------|
A#----5-4-2-----2-----2------|
G-------------3-----3---2----| x8
C-----------5-----4-------4--|
G----------------------------|
C---0------------------------|

Pre-Chorus:
E---5--5--5-5--3--3--3-3-3-3---------------------------|
A#--5--5--5-5--3--3--3-3-3-3--2--2--2-2--2--2--2-2--2--|
G---5--5--5-5--3--3--3-3-3-3--3--3--3-3--3--3--3-3--3--| X2
C---5--5--5-5--3--3--3-3-3-3--4--4--4-4--4--4--4-4--4--|
G------------------------------------------------------|
C------------------------------------------------------|

Solo Rhythm:
E---------------------------|
A#--------0-----------------|
G------0-----0-----0-----0--| x6
C----------------0-----0----|
G---------------------------|
C---0----------3-----5------|

Outro Jam:
E---------------------------------------------------------|
A#--------------------------------------------------------|
G---------------------------------------------------------|
C---0-0-x-x-x-x-x-x-x-x-0-0-x-x-x-x-x-x-x-x-x-x-3--x-x-5--|
G---0-0-x-x-x-x-x-x-x-x-0-0-x-x-x-x-x-x-x-x-x-x-3--x-x-5--|
C---0-0-x-x-x-x-x-x-x-x-0-0-x-x-x-x-x-x-x-x-x-x-3--x-x-5--|

Luther plays the main riff twice, and then Rich comes in with this part, which is played 
a full two and a half minutes and concluded with...

E-------------------------------|
A#------------------------------|
G-------------------------------|
C---------------------------0---|
G---------3-5--------3-5----5\--|
C---3-4-5------3-4-5--------0---|
Добавлено: 05.04.2012
Другие материалы по этой песне:
  • Аккорды и текст

Страница создана 05.04.2012
http://primanota.ru/black-crowes/been-a-long-time-waiting-on-love-chords.htm
Привет, Гость.
Предлагаем пройти революционный курс по гитаре.
Подарок от PrimaNota.Ru, забирай!