PrimaNota.ru - самый крупный в мире бесплатный архив песенных текстов, аккордов, табулатур и нот


Black Crowes - And The Band Played On - таба, видео

Регистрация Запомнить меня
Войти через:  Facebook Google Twitter Vk Yandex Mail.ru

Black Crowes - And The Band Played On - таба, видео

Печатать
Просмотров: 125
The Black Crowes
Song Title: And The Band Played On
TBC Original? Yes
Written By: Chris and Rich Robinson
Recording Session: Cabin Fever
Record: Before The Frost...
Live Debut: 02/21/2009
Shows: 29 times played live
Notes: Recorded at Levon Helm's home studio, "The Barn" in Woodstock, NY in front of a 
audience.

--------------------------------
The above information was taken from www.crowesbase.com

Tuning: EADGBE (Standard)

Intro:
E------------------------------------------------------|
B----------------------------------------3--3p2---3-2--|
G------2-----2-----2-----2---------2-2---2--2-----2-2--| x4
D----------------------------------2-2---4--4p2---4-2--|
A--3-4---3-4---3-4---3-4---3p0-----0-0-0-0------0---0--|
E------------------------------3p0---------------------|

F#			      F
Did you hear Gabriel blow his horn

E-------------------------------------------------------------|
B-------------------------------------------------------------|
G--------------2-----4-2-----2---------2-----2-----2-----2----|
D----------2-4---2-------4-2---2---4-2---4-2---4-2---4-2---4--|
A--0--3--4---------0-------------0----------------------------|
E-------------------------------------------------------------|
Then what sent those blackbirds on the wing

F#				F
Into this house we were born to leave

Em7	Am    D7	      G
Like an arrow   shot over the mountain
Em7    Am     D7	      G
Like a bottle   tossed in the sea
Em7    Am	  D7	   G
I have journeyed,   I have traveled
    D7         G
Now home calls me

Bm			    C
Let's all gather 'round the grand piano
Bm			    C
Let's all raise our glasses in the air
Bm		    C
Give a cheer to the jolly good fellows
A7		   D7	  G
And everyone who's cared

E------------------------------------------------------|
B----------------------------------------3--3p2---3-2--|
G------2-----2-----2-----2---------2-2---2--2-----2-2--| x2
D----------------------------------2-2---4--4p2---4-2--|
A--3-4---3-4---3-4---3-4---3p0-----0-0-0-0------0---0--|
E------------------------------3p0---------------------|

F#			 F
Who will mend this wagon wheel

E-----------------------------------------------------------------|
B-----------------------------------------------------------------|
G--------------2-----4-2-----2-----2-----2-----2-----2-----2------|
D----------2-4---4-2-----4-2---4-2---4-2---4-2---4-2---2-4---2-4--|
A--0--3--4--------------------------------------------------------|
E-----------------------------------------------------------------|
To get this show on the road

F#			      F
The music sounds just like it feels

Em7	Am    D7	      G
Like an arrow   shot over the mountain
Em7    Am     D7	      G
Like a bottle   tossed in the sea
Em7    Am	  D7	   G
I have journeyed,   I have traveled
    D7         G
Now home calls me

Bm			    C
Let's all gather 'round the grand piano
Bm			    C
Let's all raise our glasses in the air
Bm		    C
Give a cheer to the jolly good fellows
A7		   D7	  G
And everyone who's cared

G	     C      Am
And the band played on
  C	    G
Through the storm
C	    Am			C
Through the wicked wicked rain
G	     C	    Am
And the band played on
C  D 	    C  Am   C  G
In golden harmony

E-----------------------------------|
B-----------------------------------|
G------------2-----2-----2----------|
D------2----------------------------|
A--3-4---3-4---3-4---3-4---3p0------|
E------------------------------3p0--|

F#				   F
What straw will break this camel's back

E------------------------------------------------------------|
B------------------------------------------------------------|
G--------------2-4-2-----4b6-2--2-------------------2-----2--|
D----------2-4--------4-----------4-2-4-2-----------2-----2--|
A--0--3--4--------------------------------3-2-0-3-0---3-0----|
E------------------------------------------------------------|
Will we grow to love the load

F#			   F
Can't wait to be what time reveals

Bm			    C
Let's all gather 'round the grand piano
Bm			    C
Let's all raise our glasses in the air
Bm		    C
Give a cheer to the jolly good fellows
A7		   D7
And everyone who's cared
A7		    D7
Well everyone who's cared
A7	       D7	G
Everyone who's cared
Добавлено: 08.03.2012
Другие материалы по этой песне:
  • Аккорды и текст

Страница создана 08.03.2012
http://primanota.ru/black-crowes/and-the-band-played-on-chords.htm
Привет, Гость.
Предлагаем пройти революционный курс по гитаре.
Подарок от PrimaNota.Ru, забирай!