PrimaNota.ru - самый крупный в мире бесплатный архив песенных текстов, аккордов, табулатур и нот


Black Crowes - A Train Still Makes A Lonely Sound - таба, видео

Регистрация Запомнить меня
Войти через:  Facebook Google Twitter Vk Yandex Mail.ru

Black Crowes - A Train Still Makes A Lonely Sound - таба, видео

Печатать
Просмотров: 112
The Black Crowes
Song Title: A Train Still Makes A Lonely Sound
TBC Original? Yes
Written By: Chris and Rich Robinson
Recording Session: Cabin Fever
Record: Before The Frost...
Live Debut: 02/28/2009
Shows: 22 times played live
Notes: Recorded at Levon Helm's home studio, "The Barn" in Woodstock, NY in front of a
audience. It was recorded at each of the last three sessions.

---------------------------
The above information was taken from www.crowesbase.com

Tuning: DGDGBD (Open G)

Intro/Verses:
D------------------------------------------------------|
B--8---8-----------------------------------------------|
G--7h9-7-7---7-------7--7-7-7--7-7-7--7-7-7--7-7-7--7--|
D--------7h9-7-7---7-7--7-7-9--7-7-7--7-7-9--7-7-7--7--|
G--------------7h9-7-7--7-7-7--7-7-7--7-7-7--7-7-7--7--|
D------------------------------------------------------|

D-----------------------|
B--8---8----------------|
G--7h9-7-7---7-----7-0--|
D--------7h9-7-7h9---0--|
G--------------------0--|
D-----------------------|

After hitting the open G chord, Rich plays a fill.  These fills differ with every verse,
to save space in this tab I'm going to write each one out individually instead of
out the entire verse line again.  Here they are in order, with the preceding line 
above (except for the first two, which are played before the verses):

D---------------------------|
B--3------------------------|
G--2b3r2b3r2-0---0h2p0---0--|
D--------------2-------2----|
G---------------------------|
D---------------------------|

D--------------------------|
B--------------------------|
G------0--0h2p0------------|
D--0h2----------2p0--------|
G-------------------4\2p0--|
D--------------------------|

"Hear them going round and round"
D-------------------|
B--0--------1----0--|
G--0------0---0--0--|
D-----0h2--------0--|
G-------------------|
D-------------------|

"That still makes a lonely sound"
D----------------|
B--0--------1p0--|
G--0--------0----|
D-------0h2--p0--|
G----------------|
D----------------|

"That came from Knoxville town"
D----------------------------|
B--0-------------------------|
G--0------0h2p0-2b3-2b3r2p0--|
D-----0h2--------------------|
G----------------------------|
D----------------------------|

"When she took this old boy down"
D-------------------|
B--0--------1----0--|
G--0------0---0--0--|
D-----0h2--------0--|
G-------------------|
D-------------------|

"Standing on the Penn state line"
D----------------|
B--0-------------|
G--0------0------|
D-----0h2---2----|
G-------------0--|
D----------------|

"With angel on his mind"
D---------------------------|
B--3------------------------|
G--2b3r2b3r2-0---0-2-0---0--|
D--------------2-------2----|
G---------------------------|
D---------------------------|

"The way it comes and it goes"
D------------------------|
B---------3--------------|
G--0--2/4---4\2p0-----0--|
D-----------------2p0----|
G------------------------|
D------------------------|

The only one I can't seem to figure out is the very last one.

Chorus:
D---------|
B----1-3--|
G--0-2-4--|
D--0------|
G--0-2-4--|
D---------|

D----0-------0-------0-------0-------0-------0---------0-------0------|
B--5---5---5---5---3---3---3---3---7---7---7---8p7---5---5---5---5----|
G--------5-------5-------4-------4-------7---------7-------6-------6--|
D---------------------------------------------------------------------|
G--5-------5-------4-------4-------7-------7---------6-------6--------|
D---------------------------------------------------------------------|

D----0-------0-------0-----------0-------0---------0-------0------|
B--5---5---5---5---3---3---3-5-7---7---7---8p7---5---5---5---5----|
G--------5-------5-------4-----------7---------7-------6-------6--|
D-----------------------------------------------------------------|
G--5-------5-------4-------4-5-7-------7---------6-------6--------|
D-----------------------------------------------------------------|

D-----------------------------------|
B--5-----5-----4-----4-----4-4-4----|
G-----5-----5-----5-----5--5-5-5----|
D--------------------------------0--|
G--5-----5-----5-----5-----5-5-5-0--|
D-----------------------------------|

The final two choruses use the same chords as above, but instead of picking the
notes, strum them as chords.

After the first chorus, play the following fill:
D-------------------------------|
B--/3-3--3\1--------------------|
G--/4-4--4\2p0---------------0--|
D--------------2p0-2p0----------|
G----------------------2/4\2p0--|
D-------------------------------|

The second chorus leads into Luther's guitar solo.  Rich's solo rhythm is as follows:

Solo rhythm:
D-------------------------0--0---------------|
B--/12-/12--10--8--x-x-7--5--3--1p0----------|
G------------------x-x----0--0------0-----0--|
D--/12-/12--10--9--x-x-7--5--4------------0--|
G-------------------------0--0--------2p0-0--|
D--------------------------------------------|
Добавлено: 08.03.2012
Другие материалы по этой песне:
  • Аккорды и текст

Страница создана 08.03.2012
http://primanota.ru/black-crowes/a-train-still-makes-a-lonely-sound-chords.htm
Привет, Гость.
Предлагаем пройти революционный курс по гитаре.
Подарок от PrimaNota.Ru, забирай!