PrimaNota.ru - самый крупный в мире бесплатный архив песенных текстов, аккордов, табулатур и нот


Black Country Communion - Faithless - таба, видео

Регистрация Запомнить меня
Войти через:  Facebook Google Twitter Vk Yandex Mail.ru

Black Country Communion - Faithless - таба, видео

Печатать
Просмотров: 153
-------------------------------------------------------------------------------
                             Faithless (intro) - Black Country Communion
-------------------------------------------------------------------------------
Tabbed by: Smesh1069
E-mail: SethBuscus@gmail.com

Tuning:STANDARD (EADGBe)

e|---------------------------------------------------3-------------------------|
B|---------------------------------------------------3-------------------------|
G|---------------------------------------------------0-------------------------|
D|----------6-/-8--8-------------0-------------------0-------------------------|
A|--2--2----4-/-6--6-----0h2p0-----0--------2----------------------------------|
E|--0--0-------------------------------3----0----------------------------------|




e|---------------------------------------------------3--3-------------------------------|
B|---------------------------------------------------3--3--------------------| Reapeat--| x2
G|---------------------------------------------------0--0-------------------------------|
D|----------6-/-8--8-------------0-------------------0--0-------------------------------|
A|--2--2----4-/-6--6----0h2p0------0-------2--------------------------------------------|
E|--0--0-------------------------------3----0-------------------------------------------|

- this is my first tab, i am still learing this song so when when i know more i
will post more of the song. pls give me any suggestions i am still new.




************************************

| /   slide up
| \   slide down
| h   hammer-on
| p   pull-off
| ~   vibrato
| +   harmonic
| x   Mute note
| b   Bend
| pb  Pre-bend
| br  Bend release
| pbr Pre-bend release
| brb Bend release bend

************************************
Добавлено: 12.07.2013
Другие материалы по этой песне:
  • Аккорды и текст

Страница создана 16.06.2013
http://primanota.ru/black-country-communion/faithless-chords.htm
Привет, Гость.
Предлагаем пройти революционный курс по гитаре.
Подарок от PrimaNota.Ru, забирай!