PrimaNota.ru - самый крупный в мире бесплатный архив песенных текстов, аккордов, табулатур и нот


Black Cloud Collective - Hail Mary - бас-таба, видео

Регистрация Запомнить меня
Войти через:  Facebook Google Twitter Vk Yandex Mail.ru

Black Cloud Collective - Hail Mary - бас-таба, видео

Печатать
Просмотров: 130
Уроки эстрадного вокала в Санкт-Петербурге
http://www.myspace.com/theblackcloudcollective
http://www.facebook.com/pages/The-Black-Cloud-Collective/156188054400993


-------------------------------------------------------------------------------
			     HAIL MARY! - The Black Cloud Collective
-------------------------------------------------------------------------------

Tabbed By : mariewong.





Tuning: Drop D.





Intro [00:22]

G|---------------------------------------|
D|---------------------------------------|
A|--11111111----------33333333-00000000--|
D|-----------33333333--------------------|

G|---------------------------------------|
D|---------------------------------------|
A|--11111111----------33333333-22222222--|
D|-----------33333333--------------------|



Verse [00:34]

G|-------------------------------------|
D|-------------------------------------|
A|-------------------------------------|
D|--3~--5~--0-0-0-0-0-0-0-0-0-0-0-0-0--|

G|----------------------------------------|
D|----------------------------------------|
A|---------------------11111111-00000000--|
D|--3~--5~--0-0-0-0-0---------------------|

G|-------------------------------------|
D|-------------------------------------|
A|-------------------------------------|
D|--3~--5~--0-0-0-0-0-0-0-0-0-0-0-0-0--|

G|----------------------------------------|
D|----------------------------------------|
A|---------------------11111111-00000000--|
D|--3~--5~--0-0-0-0-0---------------------|



Pre-chorus [00:59]

G|---------------------------------------|
D|---------------------------------------|
A|-----------11-1-111----------33-3-333--|
D|--55-5-555----------33-3-333-----------|

G|---------------------------------------|
D|---------------------------------------|
A|-----------11-1-111----------33333333--|
D|--55-5-555----------33333333-----------|



Chorus [01:10]

G|---------------------------------------|
D|---------------------------------------|
A|--11111111----------33333333-00000000--|
D|-----------33333333--------------------|

G|---------------------------------------|
D|---------------------------------------|
A|--11111111----------33333333-22222222--|
D|-----------33333333--------------------|



Pre-verse [01:22]

G|----------------------|
D|----------------------|
A|----------------------|
D|--33-00--33-00--12\0--|



Verse [01:28]

G|-------------------------------------|
D|-------------------------------------|
A|-------------------------------------|
D|--3~--5~--0-0-0-0-0-0-0-0-0-0-0-0-0--|

G|----------------------------------------|
D|----------------------------------------|
A|---------------------11111111-00000000--|
D|--3~--5~--0-0-0-0-0---------------------|

G|------------------|
D|------------------|
A|------------------|
D|--333-555-0(x26)--|

G|------------------------------------|
D|------------------------------------|
A|-----------------11111111-00000000--|
D|--333-555-0(x10)--------------------|



Pre-chorus [01:51]

G|---------------------------------------|
D|---------------------------------------|
A|-----------11-1-111----------33-3-333--|
D|--55-5-555----------33-3-333-----------|

G|---------------------------------------|
D|---------------------------------------|
A|-----------11-1-111----------33333333--|
D|--55-5-555----------33333333-----------|



Chorus [02:03]

G|---------------------------------------|
D|---------------------------------------|
A|--11111111----------33333333-00000000--|
D|-----------33333333--------------------|

G|---------------------------------------|
D|---------------------------------------|
A|--11111111----------33333333-22222222--|
D|-----------33333333--------------------|

G|---------------------------------------|
D|---------------------------------------|
A|--11111111----------33333333-55555555--|
D|-----------33333333--------------------|

G|---------------------------------------|
D|---------------------------------------|
A|--11111111----------33333333-22222222--|
D|-----------33333333--------------------|



Pre-verse [02:26]

G|----------------------|
D|----------------------|
A|----------------------|
D|--33-00--33-00--12\0--|

G|-----------------------------|
D|-----------------------------|
A|-----------------------------|
D|--33-00--33333333-55555-xxx--|



Solo [02:38]

G|---------------------------------------|
D|---------------------------------------|
A|--11111111----------33333333-55555555--|
D|-----------33333333--------------------|

G|---------------------------------------|
D|---------------------------------------|
A|--11111111----------33333333-22222222--|
D|-----------33333333--------------------|

G|---------------------------------------|
D|---------------------------------------|
A|--11111111----------33333333-55555555--|
D|-----------33333333--------------------|

G|---------------------------------------|
D|---------------------------------------|
A|--11111111----------33333333-22222222--|
D|-----------33333333--------------------|



Break [03:01]



Chorus [03:13]

G|---------------------------------------|
D|---------------------------------------|
A|--11111111----------33333333-55555555--|
D|-----------33333333--------------------|

G|---------------------------------------|
D|---------------------------------------|
A|--11111111----------33333333-33333333--|
D|-----------33333333--------------------|

G|-----------------------------------------------------------|
D|-----------------------------------------------------------|
A|--22222222-22222222-11111111-11111111--13(x8)--13~-10~-8~--|
D|-----------------------------------------------------------|



Outro [03:34]

G|------------------------------------|
D|------------------------------------|
A|------------------------------------|
D|--33-00--33-00--12\0--33-00--33-00--|





| /  slide up
| \  slide down
| h  hammer-on
| p  pull-off
| ~  vibrato
| +  harmonic
| x  Mute note
===============================================================================
Добавлено: 21.07.2012
Другие материалы по этой песне:
  • Аккорды и текст

Страница создана 21.07.2012
http://primanota.ru/black-cloud-collective/hail-mary-chords.htm
Привет, Гость.
Предлагаем пройти революционный курс по гитаре.
Подарок от PrimaNota.Ru, забирай!