PrimaNota.ru - самый крупный в мире бесплатный архив песенных текстов, аккордов, табулатур и нот


Black Breath - Chains Of The Afterlife - таба, видео

Регистрация Запомнить меня
Войти через:  Facebook Google Twitter Vk Yandex Mail.ru

Black Breath - Chains Of The Afterlife - таба, видео

Печатать
Просмотров: 56
-------------------------------------------------------------------------------
                    Black Breath - Chains Of the Afterlife
-------------------------------------------------------------------------------
Album: Slaves Beyond Death (2015)
Tabbed by: Me
E-mail: charlie.planet@gmail.com

Tuning: Eb

e|---------------------------------------------------------------------------|
B|---------------------------------------------------------------------------|
G|-------0-------------------------------------------------------------------|
D|-----4---4-----------------------------------------------------------------|
A|---2-------2---5--0--4--4b5------------------------------------------------|
E|0------------0-------------------------------------------------------------|

e|---------------------------------------------------------------------------|
B|---------------------------------------------------------------------------|
G|-------0-------------------------------------------------------------------|
D|-----4---4-----------------------------------------------------------------|
A|---2-------2---5-----------------------------------------------------------|
E|0------------0-------------------------------------------------------------|

e|---------------------------------------------------------------------------|
B|---------------------------------------------------------------------------|
G|9--9h11h12-11-9h11p9----9b-12-9----9h11-11h12-9-9h11h12-11-9h11p9--9b--9b-9|
D|---------------------12---------12-------------------------------12--------|
A|---------------------------------------------------------------------------|
E|---------------------------------------------------------------------------|

e|---------------------------------------------------------------------------|
B|---------------------------------------------------------------------------|
G|----4---------5---2---2----------------------------------------------------|
D|2---4---------5---2---2----------------------------------------------------|
A|2---2---------3---0---0----------------------------------------------------|
E|0-------0--0---------------------------------------------------------------|

e|---------------------------------------------------------------------------|
B|---------------------------------------------------------------------------|
G|---------------------------------------------------------------------------|
D|---------------------------------------------------------------------------|
A|/10-9----------------------------------------------------------------------|
E|--------8--10/12-8---8-----------------------------------------------------|


************************************

| /   slide up
| \   slide down
| h   hammer-on
| p   pull-off
| ~   vibrato
| +   harmonic
| x   Mute note
| b   Bend
| pb  Pre-bend
| br  Bend release
| pbr Pre-bend release
| brb Bend release bend

************************************
Добавлено: 25.06.2016
Другие материалы по этой песне:
  • Аккорды и текст

Страница создана 25.06.2016
http://primanota.ru/black-breath/chains-of-afterlife-chords.htm
Привет, Гость.
Предлагаем пройти революционный курс по гитаре.
Подарок от PrimaNota.Ru, забирай!