PrimaNota.ru - самый крупный в мире бесплатный архив песенных текстов, аккордов, табулатур и нот


Black Bomb A - Mary - текст песни, таба, видео

Регистрация Запомнить меня
Войти через:  Facebook Google Twitter Vk Yandex Mail.ru

Black Bomb A - Mary - текст песни, таба, видео

Печатать
Просмотров: 193
                    Mary                     


                                 Black Bomb A
Guitare 1



     W                   W                 
D||-------------------|-------------------|
A||-------------------|-------------------|
F||-------------------|-------------------|
C||-------------------|-------------------|
G||-------------------|-------------------|
C||-------------------|-------------------|


  W                   W                 
-------------------|-------------------|
-------------------|-------------------|
-------------------|-------------------|
-------------------|-------------------|
-------------------|-------------------|
-------------------|-------------------|


  W                   W                 
-------------------|-------------------|
-------------------|-------------------|
-------------------|-------------------|
-------------------|-------------------|
-------------------|-------------------|
-------------------|-------------------|


  W                 
-------------------|
-------------------|
-------------------|
-------------------|
-------------------|
-------------------|


           |--3--|         
  H        E  E  E  E  E   
--------------------------|
--------------------------|
--------------------------|
-----------8--8--8--7-----|
-----------8--8--8--7-----|
-----------8--8--8--7-----|


  E  E  Q    E  E  Q     
------------------------|
------------------------|
------------------------|
--0--0-------0--0-------|
--0--0-------0--0-------|
--0--0-------0--0-------|


  E  E  Q    E  E  S E  S  
--------------------------|
--------------------------|
--------------------------|
--0--0-------3--3--2-2--2-|
--0--0-------3--3--2-2--2-|
--0--0-------3--3--2-2--2-|


  E  E  Q    E  E  Q     
------------------------|
------------------------|
------------------------|
--0--0-------0--0-------|
--0--0-------0--0-------|
--0--0-------0--0-------|


  E  E  Q    E  E  S E  S  
--------------------------|
--------------------------|
--------------------------|
--0--0-------8--8--7-7--7-|
--0--0-------8--8--7-7--7-|
--0--0-------8--8--7-7--7-|


  E  E  Q    E  E  Q     
------------------------|
------------------------|
------------------------|
--0--0-------0--0-------|
--0--0-------0--0-------|
--0--0-------0--0-------|


  E  E  Q    E  E  S E  S  
--------------------------|
--------------------------|
--------------------------|
--0--0-------3--3--2-2--2-|
--0--0-------3--3--2-2--2-|
--0--0-------3--3--2-2--2-|


  E  E  Q    E  E  Q     
------------------------|
------------------------|
------------------------|
--0--0-------0--0-------|
--0--0-------0--0-------|
--0--0-------0--0-------|


  E  E  Q    E  E  S E  S  
--------------------------|
--------------------------|
--------------------------|
--0--0-------8--8--7-7--7-|
--0--0-------8--8--7-7--7-|
--0--0-------8--8--7-7--7-|


  E  E  Q    E  E  Q     
------------------------|
------------------------|
------------------------|
--3--3-------6--6-------|
--3--3-------6--6-------|
--3--3-------6--6-------|


  E  E  S E  S E  E  S E  S  
----------------------------|
----------------------------|
----------------------------|
--5--5--5-5--5-7--7--7-7--7-|
--5--5--5-5--5-7--7--7-7--7-|
--5--5--5-5--5-7--7--7-7--7-|


  E  E  Q    E  E  Q     
------------------------|
------------------------|
------------------------|
--3--3-------6--6-------|
--3--3-------6--6-------|
--3--3-------6--6-------|


  E  E  S E  S E  E  S E  S  
----------------------------|
----------------------------|
----------------------------|
--5--5--5-5--5-7--7--7-7--7-|
--5--5--5-5--5-7--7--7-7--7-|
--5--5--5-5--5-7--7--7-7--7-|


  E  E  S E  S E  E  S E  S  
----------------------------|
----------------------------|
----------------------------|
--3--3--3-3--3-6--6--6-6--6-|
--3--3--3-3--3-6--6--6-6--6-|
--3--3--3-3--3-6--6--6-6--6-|


  E  E  S E  S E  E  S E  S  
----------------------------|
----------------------------|
----------------------------|
--5--5--5-5--5-7--7--7-7--7-|
--5--5--5-5--5-7--7--7-7--7-|
--5--5--5-5--5-7--7--7-7--7-|


  E  E  S E  S E  E  S E  S  
----------------------------|
----------------------------|
----------------------------|
--3--3--3-3--3-6--6--6-6--6-|
--3--3--3-3--3-6--6--6-6--6-|
--3--3--3-3--3-6--6--6-6--6-|


  E  E  S E  S E  E  S E  S  
----------------------------|
----------------------------|
----------------------------|
--5--5--5-5--5-7--7--7-7--7-|
--5--5--5-5--5-7--7--7-7--7-|
--5--5--5-5--5-7--7--7-7--7-|


  E  E  S E  S E  E  S E  S  
----------------------------|
----------------------------|
----------------------------|
--0--0--0-0--0-0--0--0-0--0-|
--0--0--0-0--0-0--0--0-0--0-|
--0--0--0-0--0-0--0--0-0--0-|


  E  E  S E  S E  E  S E  S  
----------------------------|
----------------------------|
----------------------------|
--0--0--0-0--0-3--3--2-2--2-|
--0--0--0-0--0-3--3--2-2--2-|
--0--0--0-0--0-3--3--2-2--2-|


  E  E  S E  S E  E  S E  S  
----------------------------|
----------------------------|
----------------------------|
--0--0--0-0--0-0--0--0-0--0-|
--0--0--0-0--0-0--0--0-0--0-|
--0--0--0-0--0-0--0--0-0--0-|


  E  E  S E  S E  E  S E  S  
----------------------------|
----------------------------|
----------------------------|
--0--0--0-0--0-8--8--7-7--7-|
--0--0--0-0--0-8--8--7-7--7-|
--0--0--0-0--0-8--8--7-7--7-|


  E  E  S E  S E  E  S E  S  
----------------------------|
----------------------------|
----------------------------|
--0--0--0-0--0-0--0--0-0--0-|
--0--0--0-0--0-0--0--0-0--0-|
--0--0--0-0--0-0--0--0-0--0-|


  E  E  S E  S E  E  S E  S  
----------------------------|
----------------------------|
----------------------------|
--0--0--0-0--0-3--3--2-2--2-|
--0--0--0-0--0-3--3--2-2--2-|
--0--0--0-0--0-3--3--2-2--2-|


  E  E  S E  S E  E  S E  S  
----------------------------|
----------------------------|
----------------------------|
--0--0--0-0--0-0--0--0-0--0-|
--0--0--0-0--0-0--0--0-0--0-|
--0--0--0-0--0-0--0--0-0--0-|


  E  E  S E  S E  E  S E  S  
----------------------------|
----------------------------|
----------------------------|
--0--0--0-0--0-8--8--7-7--7-|
--0--0--0-0--0-8--8--7-7--7-|
--0--0--0-0--0-8--8--7-7--7-|


  E  E  S E  S E  E  S E  S  
----------------------------|
----------------------------|
----------------------------|
--3--3--3-3--3-6--6--6-6--6-|
--3--3--3-3--3-6--6--6-6--6-|
--3--3--3-3--3-6--6--6-6--6-|


  E  E  S E  S E  E  S E  S  
----------------------------|
----------------------------|
----------------------------|
--5--5--5-5--5-7--7--7-7--7-|
--5--5--5-5--5-7--7--7-7--7-|
--5--5--5-5--5-7--7--7-7--7-|


  E  E  S E  S E  E  S E  S  
----------------------------|
----------------------------|
----------------------------|
--3--3--3-3--3-6--6--6-6--6-|
--3--3--3-3--3-6--6--6-6--6-|
--3--3--3-3--3-6--6--6-6--6-|


  E  E  S E  S E  E  S E  S  
----------------------------|
----------------------------|
----------------------------|
--5--5--5-5--5-7--7--7-7--7-|
--5--5--5-5--5-7--7--7-7--7-|
--5--5--5-5--5-7--7--7-7--7-|


  E  E  Q    E  E  Q     
------------------------|
------------------------|
------------------------|
--3--3-------6--6-------|
--3--3-------6--6-------|
--3--3-------6--6-------|


  E  E  S E  S E  E  S E  S  
----------------------------|
----------------------------|
----------------------------|
--5--5--5-5--5-7--7--7-7--7-|
--5--5--5-5--5-7--7--7-7--7-|
--5--5--5-5--5-7--7--7-7--7-|


  E  E  Q    E  E  Q     
------------------------|
------------------------|
------------------------|
--3--3-------6--6-------|
--3--3-------6--6-------|
--3--3-------6--6-------|


  E  E  S E  S E  E  S E  S  
----------------------------|
----------------------------|
----------------------------|
--5--5--5-5--5-7--7--7-7--7-|
--5--5--5-5--5-7--7--7-7--7-|
--5--5--5-5--5-7--7--7-7--7-|


  W                   H        H         
-------------------|--------------------|
-------------------|--------------------|
-------------------|--------------------|
--0----------------|--L-----------------|
--0----------------|--L-----------------|
--0----------------|--L-----------------|


  S S S S S S S S S S S S S S S S  
----------------------------------|
----------------------------------|
----------------------------------|
--3-3-3-3-3-3-3-3-0-0-0-0-0-0-0-0-|
--3-3-3-3-3-3-3-3-0-0-0-0-0-0-0-0-|
--3-3-3-3-3-3-3-3-0-0-0-0-0-0-0-0-|


  S S S S S S S S S S S S S S S S  
----------------------------------|
----------------------------------|
----------------------------------|
--6-6-6-6-6-6-6-6-2-2-2-2-2-2-2-2-|
--6-6-6-6-6-6-6-6-2-2-2-2-2-2-2-2-|
--6-6-6-6-6-6-6-6-2-2-2-2-2-2-2-2-|


  S S S S S S S S S S S S S S S S  
----------------------------------|
----------------------------------|
----------------------------------|
--3-3-3-3-3-3-3-3-7-7-7-7-7-7-7-7-|
--3-3-3-3-3-3-3-3-7-7-7-7-7-7-7-7-|
--3-3-3-3-3-3-3-3-7-7-7-7-7-7-7-7-|


  S S S S S S S S S S S S S S S S  
----------------------------------|
----------------------------------|
----------------------------------|
--0-0-0-0-0-0-0-0-0-0-0-0-0-0-0-0-|
--0-0-0-0-0-0-0-0-0-0-0-0-0-0-0-0-|
--0-0-0-0-0-0-0-0-0-0-0-0-0-0-0-0-|


  S S S S S S S S S S S S S S S S  
----------------------------------|
----------------------------------|
----------------------------------|
--3-3-3-3-3-3-3-3-0-0-0-0-0-0-0-0-|
--3-3-3-3-3-3-3-3-0-0-0-0-0-0-0-0-|
--3-3-3-3-3-3-3-3-0-0-0-0-0-0-0-0-|


  S S S S S S S S S S S S S S S S  
----------------------------------|
----------------------------------|
----------------------------------|
--6-6-6-6-6-6-6-6-2-2-2-2-2-2-2-2-|
--6-6-6-6-6-6-6-6-2-2-2-2-2-2-2-2-|
--6-6-6-6-6-6-6-6-2-2-2-2-2-2-2-2-|


  S S S S S S S S S S S S S S S S  
----------------------------------|
----------------------------------|
----------------------------------|
--3-3-3-3-3-3-3-3-7-7-7-7-7-7-7-7-|
--3-3-3-3-3-3-3-3-7-7-7-7-7-7-7-7-|
--3-3-3-3-3-3-3-3-7-7-7-7-7-7-7-7-|


  S S S S S S S S S S S S S S S S  
----------------------------------|
----------------------------------|
----------------------------------|
--0-0-0-0-0-0-0-0-0-0-0-0-0-0-0-0-|
--0-0-0-0-0-0-0-0-0-0-0-0-0-0-0-0-|
--0-0-0-0-0-0-0-0-0-0-0-0-0-0-0-0-|


  E  E  E  S E.  E  E  E   
--------------------------|
--------------------------|
--------------------------|
--3--3--3--3-2---2--2--2--|
--3--3--3--3-2---2--2--2--|
--3--3--3--3-2---2--2--2--|


  E  E  E  S E.  E  E  E   
--------------------------|
--------------------------|
--------------------------|
--7--7--7--7-2---2--2--2--|
--7--7--7--7-2---2--2--2--|
--7--7--7--7-2---2--2--2--|


  E  E  E  S E.  E  E  E   
--------------------------|
--------------------------|
--------------------------|
--3--3--3--3-2---2--2--2--|
--3--3--3--3-2---2--2--2--|
--3--3--3--3-2---2--2--2--|


  PM PM PM PM PM PM PM PM  
  E  E  E  E  E  E  E  E   
--------------------------|
--------------------------|
--------------------------|
--------------------------|
--0--0--0--0--0--0--0--0--|
--0--0--0--0--0--0--0--0--|


  E  E  E  S E.  E  E  E   
--------------------------|
--------------------------|
--------------------------|
--3--3--3--3-2---2--2--2--|
--3--3--3--3-2---2--2--2--|
--3--3--3--3-2---2--2--2--|


  E  E  E  S E.  E  E  E   
--------------------------|
--------------------------|
--------------------------|
--7--7--7--7-2---2--2--2--|
--7--7--7--7-2---2--2--2--|
--7--7--7--7-2---2--2--2--|


  E  E  E  S E.  E  E  E   
--------------------------|
--------------------------|
--------------------------|
--3--3--3--3-2---2--2--2--|
--3--3--3--3-2---2--2--2--|
--3--3--3--3-2---2--2--2--|


  PM PM PM PM PM PM PM PM  
  E  E  E  E  E  E  E  E   
--------------------------|
--------------------------|
--------------------------|
--------------------------|
--0--0--0--0--0--0--0--0--|
--0--0--0--0--0--0--0--0--|


  W                   W                 
-------------------|-------------------|
-------------------|-------------------|
-------------------|-------------------|
-------------------|-------------------|
-------------------|-------------------|
-------------------|-------------------|


  W                   W                 
-------------------|-------------------|
-------------------|-------------------|
-------------------|-------------------|
-------------------|-------------------|
-------------------|-------------------|
-------------------|-------------------|


  W                   W                 
-------------------|-------------------|
-------------------|-------------------|
-------------------|-------------------|
-------------------|-------------------|
-------------------|-------------------|
-------------------|-------------------|


  W                   W                 
-------------------|-------------------|
-------------------|-------------------|
-------------------|-------------------|
-------------------|-------------------|
-------------------|-------------------|
-------------------|-------------------|


  W                   W                 
-------------------|-------------------|
-------------------|-------------------|
-------------------|-------------------|
-------------------|-------------------|
-------------------|-------------------|
-------------------|-------------------|


  W                   W                 
-------------------|-------------------|
-------------------|-------------------|
-------------------|-------------------|
-------------------|-------------------|
-------------------|-------------------|
-------------------|-------------------|


  E  E  Q    E  E  Q     
------------------------|
------------------------|
------------------------|
--0--0-------0--0-------|
--0--0-------0--0-------|
--0--0-------0--0-------|


             |--3--|         
  E  E  Q    E  E  E  E  E   
----------------------------|
----------------------------|
----------------------------|
--0--0-------8--8--8--7-----|
--0--0-------8--8--8--7-----|
--0--0-------8--8--8--7-----|


  E  E  S E  S E  E  S E  S  
----------------------------|
----------------------------|
----------------------------|
--0--0--0-0--0-0--0--0-0--0-|
--0--0--0-0--0-0--0--0-0--0-|
--0--0--0-0--0-0--0--0-0--0-|


  E  E  S E  S E  E  S E  S  
----------------------------|
----------------------------|
----------------------------|
--0--0--0-0--0-3--3--2-2--2-|
--0--0--0-0--0-3--3--2-2--2-|
--0--0--0-0--0-3--3--2-2--2-|


  E  E  S E  S E  E  S E  S  
----------------------------|
----------------------------|
----------------------------|
--0--0--0-0--0-0--0--0-0--0-|
--0--0--0-0--0-0--0--0-0--0-|
--0--0--0-0--0-0--0--0-0--0-|


  E  E  S E  S E  E  S E  S  
----------------------------|
----------------------------|
----------------------------|
--0--0--0-0--0-8--8--7-7--7-|
--0--0--0-0--0-8--8--7-7--7-|
--0--0--0-0--0-8--8--7-7--7-|


  E  E  S E  S E  E  S E  S  
----------------------------|
----------------------------|
----------------------------|
--0--0--0-0--0-0--0--0-0--0-|
--0--0--0-0--0-0--0--0-0--0-|
--0--0--0-0--0-0--0--0-0--0-|


  E  E  S E  S E  E  S E  S  
----------------------------|
----------------------------|
----------------------------|
--0--0--0-0--0-3--3--2-2--2-|
--0--0--0-0--0-3--3--2-2--2-|
--0--0--0-0--0-3--3--2-2--2-|


  E  E  S E  S E  E  S E  S  
----------------------------|
----------------------------|
----------------------------|
--0--0--0-0--0-0--0--0-0--0-|
--0--0--0-0--0-0--0--0-0--0-|
--0--0--0-0--0-0--0--0-0--0-|


  E  E  S E  S E  E  S E  S  
----------------------------|
----------------------------|
----------------------------|
--0--0--0-0--0-8--8--7-7--7-|
--0--0--0-0--0-8--8--7-7--7-|
--0--0--0-0--0-8--8--7-7--7-|


  E  E  S E  S E  E  S E  S  
----------------------------|
----------------------------|
----------------------------|
--0--0--0-0--0-0--0--0-0--0-|
--0--0--0-0--0-0--0--0-0--0-|
--0--0--0-0--0-0--0--0-0--0-|


  E  E  S E  S E  E  S E  S  
----------------------------|
----------------------------|
----------------------------|
--0--0--0-0--0-3--3--2-2--2-|
--0--0--0-0--0-3--3--2-2--2-|
--0--0--0-0--0-3--3--2-2--2-|


  E  E  S E  S E  E  S E  S  
----------------------------|
----------------------------|
----------------------------|
--0--0--0-0--0-0--0--0-0--0-|
--0--0--0-0--0-0--0--0-0--0-|
--0--0--0-0--0-0--0--0-0--0-|


  E  E  S E  S E  E  S E  S  
----------------------------|
----------------------------|
----------------------------|
--0--0--0-0--0-8--8--7-7--7-|
--0--0--0-0--0-8--8--7-7--7-|
--0--0--0-0--0-8--8--7-7--7-|


  E  E  S E  S E  E  S E  S  
----------------------------|
----------------------------|
----------------------------|
--0--0--0-0--0-0--0--0-0--0-|
--0--0--0-0--0-0--0--0-0--0-|
--0--0--0-0--0-0--0--0-0--0-|


  E  E  S E  S E  E  S E  S  
----------------------------|
----------------------------|
----------------------------|
--0--0--0-0--0-3--3--2-2--2-|
--0--0--0-0--0-3--3--2-2--2-|
--0--0--0-0--0-3--3--2-2--2-|


  E  E  S E  S E  E  S E  S  
----------------------------|
----------------------------|
----------------------------|
--0--0--0-0--0-0--0--0-0--0-|
--0--0--0-0--0-0--0--0-0--0-|
--0--0--0-0--0-0--0--0-0--0-|


  E  E  S E  S E  E  S E  S  
----------------------------|
----------------------------|
----------------------------|
--0--0--0-0--0-8--8--7-7--7-|
--0--0--0-0--0-8--8--7-7--7-|
--0--0--0-0--0-8--8--7-7--7-|


  E  E  Q    E  E  Q     
------------------------|
------------------------|
------------------------|
--0--0-------0--0-------|
--0--0-------0--0-------|
--0--0-------0--0-------|


  E  E  Q    E  E  S E  S  
--------------------------|
--------------------------|
--------------------------|
--0--0-------3--3--2-2--2-|
--0--0-------3--3--2-2--2-|
--0--0-------3--3--2-2--2-|


  E  E  Q    E  E  Q     
------------------------|
------------------------|
------------------------|
--0--0-------0--0-------|
--0--0-------0--0-------|
--0--0-------0--0-------|


  E  E  Q    E  E  S E  S  
--------------------------|
--------------------------|
--------------------------|
--0--0-------8--8--7-7--7-|
--0--0-------8--8--7-7--7-|
--0--0-------8--8--7-7--7-|


  E  E  Q    E  E  Q     
------------------------|
------------------------|
------------------------|
--0--0-------0--0-------|
--0--0-------0--0-------|
--0--0-------0--0-------|


  E  E  Q    E  E  S E  S  
--------------------------|
--------------------------|
--------------------------|
--0--0-------3--3--2-2--2-|
--0--0-------3--3--2-2--2-|
--0--0-------3--3--2-2--2-|


  E  E  Q    E  E  Q     
------------------------|
------------------------|
------------------------|
--0--0-------0--0-------|
--0--0-------0--0-------|
--0--0-------0--0-------|


             |--3--|          
  E  E  Q    E  E  E  E  E    
----------------------------||
----------------------------||
----------------------------||
--0--0-------8--8--8--7-----||
--0--0-------8--8--8--7-----||
--0--0-------8--8--8--7-----||




Duration Legend
---------------
W - whole
H - half
Q - quarter
E - 8th
S - 16th
T - 32nd
X - 64th
. - note dotted
|-n-|  - n-tuplets


Tablature Legend
----------------
L - tied note
x - dead note
g - grace note
(n) - ghost note
> - accentuded note
NH - natural harmonic
AH - artificial harmonic
TH - tapped harmonic
SH - semi harmonic
PH - pitch harmonic
h - hammer on
p - pull off
b - bend
br - bendRelease
pb - preBend
pbr - preBendRelease
brb - bendReleaseBend
\n/ - tremolo bar dip
\n - tremolo bar dive
-/n - tremolo bar Release up
/n\ - tremolo bar inverted dip
/n - tremolo bar return
-\n - tremolo bar Release down
S - shift slide
s - legato slide
/ -  slide into from below or out of upwards
\ -  slide into from above or out of downwards
~ - vibrato
W - wide vibrato
tr - trill
TP - tremolo picking
T - tapping
S - slap
P - pop
< - fade in
^ - brush up
v - brush down




http://www.blackbomba.com/v03/
Добавлено: 10.05.2012
Другие материалы по этой песне:

Страница создана 08.04.2012
http://primanota.ru/black-bomb-a/mary-chords.htm
Привет, Гость.
Предлагаем пройти революционный курс по гитаре.
Подарок от PrimaNota.Ru, забирай!