PrimaNota.ru - самый крупный в мире бесплатный архив песенных текстов, аккордов, табулатур и нот


Black Bomb A - Fatherfuckers - таба, видео

Регистрация Запомнить меня
Войти через:  Facebook Google Twitter Vk Yandex Mail.ru

Black Bomb A - Fatherfuckers - таба, видео

Печатать
Просмотров: 174
http://www.youtube.com/watch?v=r7uWJAhwpoo

--------------------------------------------------------------------

D|-----------------------------------------------------------------|
A|-----------------------------------------------------------------|
F|-----------------------------------------------------------------|
C|-----------------------------------------------------------------| A
G|-----------------------------------------------------------------|
C|--5-5-5-5---8p5---8p5---8p5---8---3-3-3-3---6p3---6p3---6p3---6--|

D|------------------------------------------------------------|
A|------------------------------------------------------------|
F|--------------------------------5---5---5-5----7---7---7-7--|
C|--2---2---2-2----3---3---3-3----5---5---5-5----7---7---7-7--|     B
G|--2---2---2-2----3---3---3-3----3---3---3-3----5---5---5-5--|
C|--2---2---2-2----3---3---3-3--------------------------------|

D|-----------------------------------------------------------------|
A|-----------------------------------------------------------------|
F|-----------------------------------------------------------------|
C|-----------------------------------------------------------------| C
G|------------------------------------------------------3---5p3h5--|
C|--0---0---3---6---0---0---2---3---0---0---3---6---5--------------|

D|-----
A|-----
F|-----
C|--0--    D
G|--0--
C|--0--

D|-----------------------------------------------------------------|
A|-----------------------------------------------------------------|
F|-----------------------------------------------------------------|
C|--0---0---3---6---0---0---2---3---0---0---3---6---5--------------| E
G|--0---0---3---6---0---0---2---3---0---0---3---6---5---3---5p3h5--|
C|--0---0---3---6---0---0---2---3---0---0---3---6---5--------------|

D|--------------------------------|
A|--------------------------------|
F|--------------------------------|
C|--0---0---3---5------0---3---5--|    F
G|--0---0---3---5------0---3---5--|
C|--0---0---3---5------0---3---5--|

D|-----------------------------------------------------------------|
A|-----------------------------------------------------------------|
F|-----------------------------------------------------------------|
C|--0--------------------------------------------------------------| G
G|--0---------------------------------------------------3---5p3h5--|
C|--0---0---3---6---0---0---2---3---0---0---3---6---5--------------|

D|-----------------------------------------------------|
A|-----------------------------------------------------|
F|-----------------------------------------------------|
C|--0-----------------------------------------------0--|   H
G|--0-----------------------------------------------0--|
C|--0---0---3---6---0---0---2---3---0---0---3---6---0--|


COMPOSITION :

(A + B) x 4
C x 2
D
E x 4
D
B
(A + B) x 2
D
F x 9
E x 4
D
G
H
Добавлено: 25.07.2012
Другие материалы по этой песне:
  • Аккорды и текст

Страница создана 25.07.2012
http://primanota.ru/black-bomb-a/fatherfuckers-chords.htm
Привет, Гость.
Предлагаем пройти революционный курс по гитаре.
Подарок от PrimaNota.Ru, забирай!