PrimaNota.ru - самый крупный в мире бесплатный архив песенных текстов, аккордов, табулатур и нот


Black Bomb A - Down - текст песни, таба, видео

Регистрация Запомнить меня
Войти через:  Facebook Google Twitter Vk Yandex Mail.ru

Black Bomb A - Down - текст песни, таба, видео

Печатать
Просмотров: 153
http://www.deezer.com/listen-234144

---------------------------------------------------------------------------

D|-----------------------------------------------|
A|-----------------------------------------------|
F|-----------------------------------------------|
C|--0--4--5--0--2--3--0--4--5--0--2--3--0--4--5--|      A
G|--0--4--5--0--2--3--0--4--5--0--2--3--0--4--5--|
C|--0--4--5--0--2--3--0--4--5--0--2--3--0--4--5--|
    ........................................       <-PM

D|----------------------------|
A|----------------------------|
F|----------------------------|
C|--6--5--0--2--3----1--1--0--|                         B
G|--6--5--0--2--3----1--1--0--|
C|--6--5--0--2--3----1--1--0--|

D|---------------------------------------|
A|---------------------------------------|
F|---------------------------------------|
C|--6--5--0--2--3----6--7--6--0--1----0--|              C
G|--6--5--0--2--3----6--7--6--0--1----0--|
C|--6--5--0--2--3----6--7--6--0--1----0--|

D|------------------------------------------------|
A|------------------------------------------------|
F|------------------------------------------------|
C|--6--5--0--2--3----6--7--6--0--1----0--0--0--0--|     D
G|--6--5--0--2--3----6--7--6--0--1----0--0--0--0--|
C|--6--5--0--2--3----6--7--6--0--1----0--0--0--0--|
                                      ..........   <-PM

D|---------------|
A|---------------|
F|---------------|
C|--0--0--1-1-0--|                                      E
G|--0--0--1-1-0--|
C|--0--0--1-1-0--|
    ........... <-PM

D|--------------|
A|--------------|
F|--8--7--------|
C|--8--7--2--1--|                                       F
G|--6--5--2--1--|
C|--------2--1--|

D|-----------------|
A|-----------------|
F|-----------------|
C|--0---0---0---0--|                                    G
G|--0---0---0---0--|
C|--0---0---0---0--|

D|-----
A|-----
F|-----
C|--0--                                                H
G|--0--
C|--0--

D|------------------------------------|
A|------------------------------------|
F|------------------------------------|
C|--0--------3--------8------12\\\\3--|                 I
G|--0--------3--------8------12\\\\3--|
C|--0--------3--------8------12\\\\3--|

D|-------------------------------------------|
A|-------------------------------------------|
F|-------------------------------------------|
C|--0--0----0--0----0--0----0--0----0--0--0--|          J
G|--0--0----0--0----0--0----0--0----0--0--0--|
C|--0--0----0--0----0--0----0--0----0--0--0--|
    .......................................       <- PM


COMPOSITION :

A x 8
B x 4

C
D
C x 3

(E x 6 + F) x 2

A x 8
G x 3
H

C
D
C x 3
D
C x 3

(E x 6 + F) x 6

(I + J) ad lib
Добавлено: 25.05.2012
Вам также может быть интересно:
Другие материалы по этой песне:

Страница создана 09.04.2012
http://primanota.ru/black-bomb-a/down-chords.htm
Привет, Гость.
Предлагаем пройти революционный курс по гитаре.
Подарок от PrimaNota.Ru, забирай!