PrimaNota.ru - самый крупный в мире бесплатный архив песенных текстов, аккордов, табулатур и нот


Björns Vänner - Anna Vennergren - таба, видео

Регистрация Запомнить меня
Войти через:  Facebook Google Twitter Vk Yandex Mail.ru

Björns Vänner - Anna Vennergren - таба, видео

Печатать
Просмотров: 120
-----------------------------------------------------------------------------
                       Björns Vänner - Anna Vennergren
-----------------------------------------------------------------------------
Tabbed by: Marcus Marchal (Warflojd)
E-mail: mackan_003_94@hotmail.com

Tuning: Standard
Capo: 0

Intro:
Bm - A - G x2
A - A7

e|--------------------------------------------------------------------------------
B|--------------------------------------------------------------------------------
G|----------------------7-------------------------6-------------------------------
D|--------7--9--9--7h9-----9--7--9---------7---------7----------------------------
A|--7--9----------------------------9--10-----10--------10--7--10--9--10--5/7--5--
E|--------------------------------------------------------------------------------

D      C   G      A
Jag är kär i Anna Vennergren
D   C   G  Em  Bm  
År 2000-09-22
A              D           G
Blåa ögon och svartkrulligt hår
Bm              A      D      G
En främling för mig så nära inpå

Bm - A - G x2
A - A7

D          C       G         A               D        C    G       Em
Jag torkar mig med en möglig handduk och hon gned sin näsa mot min hud
    Bm           A          D             G
och sade "Du jag gillar den lukten som du har.
       Bm           A           D           G
Luktar svamp luktar jord luktar gott luktar bra"

D - G - A - D

e|--5--7--9---10--12--12--14--14--12--12--
B|--7--8--10--12--------------------------
G|--7--9--11--12--------------------------
D|---------------------------------------
A|---------------------------------------
E|---------------------------------------

D                    G
Pojkar är blå gillar krigsleksaker och
D                        G
Flickor är blyga ler och niger artigt
D       A         G     A       D  A  G
Men jag vill inte lägga sånt på dig

D           A
Jag ser för mycket kraft
G              D
Röda gator och vit makt
D             A
Jag vill bara hålla dig
G
Släppa dig
D
Hålla dig

Bm - A - G 
Bm - A - G - A

D       C     G   A
Jag kan ligga med precis vem jag vill
D       C      G    Em       Bm
Jag kan stjäla alla flickors hjärtan
    A        G
Och ha dem i källaren
Bm              A     D         G
Och där kan dem ligga år ut och år in
D            C    G       A
Men jag vill bara ha Anna Vennergren
D       C      G       Em           Bm
När jag frågar hur hon mår blir det tyst
        A          G
Och sen dröjer det månader
    Bm         A          D            G
Sen svarar hon mer än vad jag någonsin vågat fråga

D - G - A - D

e|--5--7--9---10--12--12--14--14--12--12--
B|--7--8--10--12--------------------------
G|--7--9--11--12--------------------------
D|---------------------------------------
A|---------------------------------------
E|---------------------------------------

D                    G
Vita förtrycker alla minoriteter och
D                        G
Svarta kan dansa sjunga, spela trumpeter
D            A    G     A               D  A  G
Och jag vill inte lägga något sådant på dig

D       A
Jag ser himmelsbrand
    G                D
Hur sverige blir ett fattigt land
D             A
Jag vill bara släppa dig
G
Hålla dig
D
Släppa dig

Outro:
D - A - G - D 
D - A - G 
Bm - A - G
Bm - D - G - A - D
D - G - A - D
Добавлено: 03.08.2015
Другие материалы по этой песне:
  • Аккорды и текст

Страница создана 03.08.2015
http://primanota.ru/bjorns-vanner/anna-vennergren-chords.htm
Привет, Гость.
Предлагаем пройти революционный курс по гитаре.
Подарок от PrimaNota.Ru, забирай!