PrimaNota.ru - самый крупный в мире бесплатный архив песенных текстов, аккордов, табулатур и нот


Bjorn Riis - Stay Calm - аккорды и текст, видео

Регистрация Запомнить меня
Войти через:  Facebook Google Twitter Vk Yandex Mail.ru

Bjorn Riis - Stay Calm - аккорды и текст, видео

Печатать
Просмотров: 21
Stay Calm
Bjorn Riis
-----------------------------------------------------------------------------
                                          Artist - Bjorn Riis
                                         *********************
                                           Song - Stay Calm 
                                          ******************
                                  Album - Lullaby In A Car Crash (2014)
                                 ***************************************
                                         Tabbed By - Ayreon77
                                        **********************
-----------------------------------------------------------------------------
Tuning = Standard



INTRO - Acoustic
******
Dm Am X2


-----------------------------
VERSE 1
******** 
         Dm
Did your father give you hell
                       Am
Did your mother try to break you down
         Dm
Did they mess up your head
                        Am
And tighten the strings attached to your bones


-----------------------------
SYNTH - Dm F7M   X4
******


-----------------------------
VERSE 2
********
     Dm
When you were growing up
                          F7M  
You struggled between the boredom and pain
           Dm
But you're still waiting for something to happen
                           F7M  
Something to keep you from going insane


-----------------------------
CHORUS
*******
        Bb
I don't wanna be here
                                                 F7M  
It's all a mistake and I need to know how to get out
      Bb           
And I try to stay calm
                                      Dm
But the fear inside is taking control again

Again Again Again Again Again Again


C Bb........


-----------------------------
03:14
SOLO 1 - Dm C Bb
*******
e|--s------------------s---------|---p-----------br--------|--br--|--------------------------|
B|-3\15~~~~~~~~~~-15-15\10~~~-10-|-13-10-13~~~~-13--10~~~~-|-10-8-|----------b---r--13--br---|
G|-------------------------------|-------------------------|------|--s---10-12---------12~~~-|
D|-------------------------------|-------------------------|------|-3\12---------------------|
A|-------------------------------|-------------------------|------|--------------------------|
E|-------------------------------|-------------------------|------|--------------------------|

03:35
e|-----------------|-------|-------------------------------|----------|----10---p----b-----------|
B|-13--b-----------|-br----|-------------------------------|---p------|--b----13-10-13~~~~~~~~~~-|
G|----12~~-12-10-9-|-9-----|------------10----12----10~~~~-|-12-10-12-|-12-----------------------|
D|-----------------|----10-|--s---10-12----12----12--------|----------|--------------------------|
A|-----------------|-------|-3\12--------------------------|----------|--------------------------|
E|-----------------|-------|-------------------------------|----------|--------------------------|

        p     s b
e|-10-13-10-13\15--13-------------s-|---p----b--r---b-r---h--p------s-|---p---------s-|
B|--------------------15-13-15~~~~\-|-15-13-15-----15---13-15-13~~~~\-|-15-13-15~~~~\-|
G|----------------------------------|---------------------------------|---------------|
D|----------------------------------|---------------------------------|---------------|
A|----------------------------------|---------------------------------|---------------|
E|----------------------------------|---------------------------------|---------------|

04:01
     p
e|-13-12-----------|--s----------------------------------------------------|
B|-------13--------|-3\15-13-----------------------------------------------|
G|----------12~~~~-|---------14-12-10-9-7-5--s-----------------s-----------|
D|-----------------|------------------------3\7-5-3-2-3-2-3-5-5\7~~~~~~~~~-|
A|-----------------|-------------------------------------------------------|
E|-----------------|-------------------------------------------------------|


-----------------------------
PICKING 
********
  Am
e|----------------------|----------------------|-------------15-------|-------------15-------|
B|-------13----12-13----|-------13----12-13----|-------13-------13----|-------13-------13----|
G|-14-14----14-------14-|-14-14----14-------14-|-14-14----14-------14-|-14-14----14-------14-|
D|----------------------|----------------------|----------------------|----------------------|
A|----------------------|----------------------|----------------------|----------------------|
E|----------------------|----------------------|----------------------|----------------------|X2


D

-----------------------------
04:41
CLEAN CHORDS
*************
Dsus2.... F7M  ... Dsus2.... F7M  

05:09
  Dsus2      F7M  
e|-----------------------------|---------|------|
B|-----------------------------|---------|------|
G|-----------------------------|---------|------|this guitar
D|-----------------------------|---------|------|E 6 string
A|-----------------------------|--s--3-5-|------|is tuned to D
D|-0~~~~~~-0--3--0~~~~~~~-0--3-|-3\7-----|-0~~~-|

05:38
Dsus2 F7M   Dsus2 F7M   Gm Bb C Dsus2
-----------------------------

06:29
SOLO 
*****
Dm Am          Dm              F7M  
e|-----------|--s------------|---s--s--|
B|--s--------|-8\10-10~~~~~~-|-10\13/8-|
G|-7\9~~~~~~-|---------------|---------|
D|-----------|---------------|---------|
A|-----------|---------------|---------|
E|-----------|---------------|---------|


-----------------------------
VERSE 3
********
          Dm
Don't you wanna believe
                      F7M  
That you can see the sky from here
    Dm
And You can have it all
                  F7M  
As long as you're playing the game


-----------------------------
VERSE 4 
********
Dm
Get a new life
                       F7M  
Get a better job and a faster car
      Dm
Get a tv that'll cover your wall
                         F7M  
It'll numb your pain and erase your mind


-----------------------------
CHORUS
*******
  Bb                  F7M                 Bb
e|---------1-----|   |---------0-----|   |---------1-----|
B|-----1-----1---|   |-----1-----1---|   |-----1-----1---|
G|---3---3-----3-|   |---2---2-----2-|   |---3---3-----3-|
D|-3-------------|   |-3-------------|   |-3-------------|
A|---------------|   |---------------|   |---------------|
E|---------------|X4 |---------------|X4 |---------------|X4
        Bb
I don't wanna be here
                                                 F7M  
It's all a mistake and I need to know how to get out
      Bb           
And I try to stay calm
                                      Dsus2
But the fear inside is taking control again


-----------------------------
08:10
SOLO 2               Whammy
*******               dive        b                                                hold
e|--b--------b-r--10~~~/\-|--br-12--12~~~~~-|---p----------|-----------------s-|---bend------------|
B|-13~~~~~~-13~~~---------|-13--------------|-13-10-13~~~~-|--b-13--b-10~~~~~\-|-b--|--br----------|
G|------------------------|-----------------|--------------|-12----12----------|-7--7--7--5~~~~~~~-|
D|------------------------|-----------------|--------------|-------------------|-------------------|
A|------------------------|-----------------|--------------|-------------------|-------------------|
E|------------------------|-----------------|--------------|-------------------|-------------------|

08:34                                                                                  b  r  b    
e|--------------------------|--b----------b---b-------b-10~~~~--b--------|------13-15-15----15-|
B|----------------b--13--rb-|-13~~~~~~~~-13--13--10-13---------13--13~~~-|--s------------------|
G|--s---10-12-10-12-----12--|--------------------------------------------|-9\14----------------|
D|-3\12---------------------|--------------------------------------------|---------------------|
A|--------------------------|--------------------------------------------|---------------------|
E|--------------------------|--------------------------------------------|---------------------|

08:52  
    b        br
e|-15-15-13-12-------|
B|-------------13----|
G|----------------12-|
D|-------------------|
A|-------------------|
E|-------------------|


ENJOY.............
Добавлено: 09.05.2016
Другие материалы по этой песне:
  • Аккорды и текст

Страница создана 09.05.2016
http://primanota.ru/bjorn-riis/stay-calm-chords.htm
Привет, Гость.
Предлагаем пройти революционный курс по гитаре.
Подарок от PrimaNota.Ru, забирай!