PrimaNota.ru - самый крупный в мире бесплатный архив песенных текстов, аккордов, табулатур и нот


Bjorn Hellfuck - Pissen - бас-таба, видео

Регистрация Запомнить меня
Войти через:  Facebook Google Twitter Vk Yandex Mail.ru

Bjorn Hellfuck - Pissen - бас-таба, видео

Печатать
Просмотров: 185
Уроки эстрадного вокала в Санкт-Петербурге
Bjorn Hellfuck - Pissen
Tab: Simen Wie
Tuning: Standard
vers:
|------------------|
|------------------|
|-------0-0-03-3---|
|0--03-3-----------|


refreng:
|---------------------|--------------------|
|0---0h2p0------------|--------------------|
|---------------------|3---2h3p20-0--0-0-3-|
|----------3--3-0-3---|--------------------|

|---------------------|--------------------|
|0---0h2p0------------|--------------------|
|---------------------|3--------------0----|
|----------3--3-0-3---|--------------------|

|---------------------|--------------------|
|0---0h2p0------------|--------------------|
|---------------------|3---2h3p20-0--0-0-3-|
|----------3--3-0-3---|--------------------|

|---------------------|--------------------|
|0---0h2p0------------|--------------------|
|---------------------|3---2h3p20-0--0-0-3-|
|----------3--3-0-3---|--------------------|
	
	
Добавлено: 05.07.2012
Другие материалы по этой песне:
  • Аккорды и текст

Страница создана 05.07.2012
http://primanota.ru/bjorn-hellfuck/pissen-chords.htm
Привет, Гость.
Предлагаем пройти революционный курс по гитаре.
Подарок от PrimaNota.Ru, забирай!