PrimaNota.ru - самый крупный в мире бесплатный архив песенных текстов, аккордов, табулатур и нот


Bjorn Hellfuck - Essemus - таба, видео

Регистрация Запомнить меня
Войти через:  Facebook Google Twitter Vk Yandex Mail.ru

Bjorn Hellfuck - Essemus - таба, видео

Печатать
Просмотров: 105
h = hammer-on
p = pull-off
s = slide

	*INTRO*

[0:00]
|--14p12--14p12--12--------12--14-----15-14------12------|
|---------------------15---------------------15------15--| 
|--------------------------------------------------------|
|--------------------------------------------------------|
|--------------------------------------------------------|
|--------------------------------------------------------|

|---------------------14------12--14-------|
|-------14--15------------15----------15---|
|---14-----------14------------------------|
|------------------------------------------|
|------------------------------------------|
|------------------------------------------|

[0:12]
|---14-14-14-14p12-14p12-14--------12-14---15--14-----12-------|
|-----------------------------15-------------------15-----15---|
|--------------------------------------------------------------|
|--------------------------------------------------------------|
|--------------------------------------------------------------|
|--------------------------------------------------------------|

|--------------------14--------12--14----------|
|-------14--15------------15-----------15------|
|---14-----------14----------------------------|
|----------------------------------------------|
|----------------------------------------------|
|----------------------------------------------|

[0:12]
    D              A                B                 G
|---------2--------------------------------------------------3--------|
|------------3------------2---------------3---------------------3-----|
|------2---------------------2----------------4-----------------------|
|---0-----------------2----------------4------------------------------|
|------------------0----------------2--------------------2------------|
|------------------------------------------------------3--------------|

	*VERS*

(Hør på sangen for å finne ut hvordan du spiller dette.)
[0:24]
|--------------------------------------|
|---3----------------------------3-----|
|---2------2------4----------2---2-----|
|---0------2------4------5---2---0-----|
|----------0------2------5---0---------|
|------------------------3-------------|

[0:43]
                        
|-----------------------------------------------------------|
|---3-------------------------------------------------------|
|---2------2--------------------------2---------------------|
|---0------2------5-------------------2---------------------|
|----------0------5-------------------0---------------------|
|-----------------3-----------------------------------------|

	*REFRENG*
Få den skitne horen hem og bare glem at hon var pen
|-----------------------------------------------------------|
|------------------------3----------------------------------|
|---4--------------------2-----------2---------------4------|
|---4-------5------------0-----------2---------------4------|
|---2-------5------------------------0---------------2------|
|-----------3-----------------------------------------------|

For når folk har ess i musen blir det i overkant spesielt
|-----------------------------------------------------------------|
|-----------------------------------------------------------------|
|---4-----------------------------------------2--------------4----|
|---4---------2--------------5----------------2--------------4----|
|---2---------2--------------5----------------0--------------2----|
|-------------0--------------3------------------------------------|

Få den skitne horen hem og bare glem at hon var pen
|-----------------------------------------------------------|
|------------------------3----------------------------------|
|---4--------------------2-----------2---------------4------|
|---4-------5------------0-----------2---------------4------|
|---2-------5------------------------0---------------2------|
|-----------3-----------------------------------------------|
For når folk har ess i musen (lalalala) blir det i overkant spesielt
|-----------------------------------------------------------------|
|-----------------------------------------------------------------|
|---4-----------------------------------------2--------------4----|
|---4---------2--------------5----------------2--------------4----|
|---2---------2--------------5----------------0--------------2----|
|-------------0--------------3------------------------------------|
	
[1:18]
|--14p12--14p12--12--------12--14-----15-14------12------|
|---------------------15---------------------15------15--| 
|--------------------------------------------------------|
|--------------------------------------------------------|
|--------------------------------------------------------|
|--------------------------------------------------------|

|---------------------14------12--14-------|
|-------14--15------------15----------15---|
|---14-----------14------------------------|
|------------------------------------------|
|------------------------------------------|
|------------------------------------------|

[1:18]
    D              A                B                 G
|---------2--------------------------------------------------3--------|
|------------3------------2---------------3---------------------3-----|
|------2---------------------2----------------4-----------------------|
|---0-----------------2----------------4------------------------------|                       
|------------------0----------------2--------------------2------------|
|------------------------------------------------------3--------------|



[1:30]
|---14-14-14-14p12-14p12-14--------12-14---15--14-----12-------|
|-----------------------------15-------------------15-----15---|
|--------------------------------------------------------------|
|--------------------------------------------------------------|
|--------------------------------------------------------------|
|--------------------------------------------------------------|

|--------------------14--------12--14----------|
|-------14--15------------15-----------15------|
|---14-----------14----------------------------|
|----------------------------------------------|
|----------------------------------------------|
|----------------------------------------------|

[1.30]
|-------------------------------------------|
|---3-3-3-3---2-2-2-2-----------------------|
|---2-2-2-2---2-2-2-2---4-4-4-4-------------|
|---0-0-0-0---2-2-2-2---4-4-4-4---5-5-5-5---|                            
|-------------0-0-0-0---2-2-2-2---5-5-5-5---|
|---------------------------------3-3-3-3---|

	*REFRENG*
Få den skitne horen hem og bare glem at hon var pen
|-------------------------------------------------------------------------|
|----------------------------3--------------------------------------------|
|---4------------------------2---------------2------------------4---------|
|---4---------5--------------0---------------2------------------4---------|
|---2---------5------------------------------0------------------2---------|
|-------------3-----------------------------------------------------------|

For når folk har ess i musen blir det i overkant spesielt
|-------------------------------------------------------------------------|
|-------------------------------------------------------------------------|
|---4----------------------------------------------2-----------------4----|
|---4------------2--------------5------------------2-----------------4----|
|---2------------2--------------5------------------0-----------------2----|
|----------------0--------------3-----------------------------------------|

Få den skitne horen hem og bare glem at hon var pen
|-------------------------------------------------------------------------|
|----------------------------3--------------------------------------------|
|---4------------------------2---------------2------------------4---------|
|---4---------5--------------0---------------2------------------4---------|
|---2---------5------------------------------0------------------2---------|
|-------------3-----------------------------------------------------------|

For når folk har ess i musen (lalalala) blir det i overkant spesielt
|---------------------------------------------------------------|
|---------------------------------------------------------------|
|---4-----------------------------------------2-----------------|
|---4------------2--------------5-------------2-----------------|
|---2------------2--------------3-------------0-----------------|
|----------------0--------------3-------------------------------|

[2:09]
|-------------------------------------------------------------------|
|---3-3-3-3-3-3-3---------------------------------------------------|
|---2-2-2-2-2-2-2-------------------4-4-4-4-4-4-4---2-2-2-2-2-2-2---|
|---0-0-0-0-0-0-0---5-5-5-5-5-5-5---4-4-4-4-4-4-4---2-2-2-2-2-2-2---|         
|-------------------5-5-5-5-5-5-5---2-2-2-2-2-2-2---0-0-0-0-0-0-0---|
|-------------------3-3-3-3-3-3-3-----------------------------------|

[2:33]
(Gitar 1)
|---------------------------------------------------------------|
|---3-3-3--3-3-3------------------------------------------------|
|---2-2-2--2-2-2------------------4-4-4--4-4-4---2-2-2--2-2-2---|
|---0-0-0--0-0-0---5-5-5--5-5-5---4-4-4--4-4-4---2-2-2--2-2-2---|
|------------------5-5-5--5-5-5---2-2-2--2-2-2---0-0-0--0-0-0---|
|------------------3-3-3--3-3-3---------------------------------|

(Gitar 2)
|---------------------------------------------------------------|
|---3-3-3--3-3-3--3-3-3--3-3-3--3-3-3--3-3-3s5------------------|
|---2-2-2--2-2-2--2-2-2--2-2-2--2-2-2--2-2-2s4---2-2-2--2-2-2---|
|---0-0-0--0-0-0--0-0-0--0-0-0--0-0-0--0-0-0-----2-2-2--2-2-2---|
|------------------------------------------------0-0-0--0-0-0---|
|---------------------------------------------------------------|

[2:45]
(Gitar 2)
|----------------------------------------------------------------------------|
|---7----------------------8--5--------------7s2--3----------7--8--5---------|
|----------------------------------------------------------------------------|
|----------------------------------------------------------------------------|
|----------------------------------------------------------------------------|
|----------------------------------------------------------------------------|

[2:59]
	*REFRENG*
Få den skitne horen hem og bare glem at hon var pen
|-------------------------------------------------------------------------|
|----------------------------3--------------------------------------------|
|---4------------------------2---------------2------------------4---------|
|---4---------5--------------0---------------2------------------4---------|
|---2---------5------------------------------0------------------2---------|
|-------------3-----------------------------------------------------------|

For når folk har ess i musen blir det i overkant spesielt
|-------------------------------------------------------------------------|
|-------------------------------------------------------------------------|
|---4----------------------------------------------2-----------------4----|
|---4------------2--------------5------------------2-----------------4----|
|---2------------2--------------5------------------0-----------------2----|
|----------------0--------------3-----------------------------------------|

Få den skitne horen hem og bare glem at hon var pen
|-------------------------------------------------------------------------|
|----------------------------3--------------------------------------------|
|---4------------------------2---------------2------------------4---------|
|---4---------5--------------0---------------2------------------4---------|
|---2---------5------------------------------0------------------2---------|
|-------------3-----------------------------------------------------------|

For når folk har ess i musen blir det i overkant spesielt
|-------------------------------------------------------------------------|
|-------------------------------------------------------------------------|
|---4----------------------------------------------2-----------------4----|
|---4------------2--------------5------------------2-----------------4----|
|---2------------2--------------5------------------0-----------------2----|
|----------------0--------------3-----------------------------------------|

    «Få den skitne horen hem og bare glem at hon var pen...»
|---------------------------------------------------------------------|
|----------------------------3----------------------------------------|
|---4------------------------2---------------2------------------4-----|
|---4---------5--------------0---------------2------------------4-----|
|---2---------5------------------------------0------------------2-----|
|-------------3-------------------------------------------------------|

[3:42]
Få den skitne horen hem og bare glem at hon var pen
|-----------------------------------------------------------|
|-----------------------------------------------------------|
|---4-------------------------------------------------2-----|
|---4---------2------------------------5--------------2-----|
|---2---------2------------------------5--------------0-----|
|-------------0------------------------3--------------------|

[3:49]
Få den skitne horen hem og bare glem at hon var pen
|------------------------------------------------------------------|
|------------------------------------------------------------------|
|------------------------------------2-----------------------------|
|---5--------------------------------2-----------------------------|
|---5--------------------------------0-----------------------------|
|---3--------------------------------------------------------------|

    Ess i musen!
|----------------------|
|----------3-----------|
|----------2-----------|
|----------0-----------|
|----------------------|
|----------------------|
Добавлено: 08.06.2012
Другие материалы по этой песне:
  • Аккорды и текст

Страница создана 08.06.2012
http://primanota.ru/bjorn-hellfuck/essemus-chords.htm
Привет, Гость.
Предлагаем пройти революционный курс по гитаре.
Подарок от PrimaNota.Ru, забирай!