PrimaNota.ru - самый крупный в мире бесплатный архив песенных текстов, аккордов, табулатур и нот


Bjork - Moon - таба, видео

Регистрация Запомнить меня
Войти через:  Facebook Google Twitter Vk Yandex Mail.ru

Bjork - Moon - таба, видео

Печатать
Просмотров: 199
-------------------------------------------------------------------------------
                                MOON - Bjork
-------------------------------------------------------------------------------

Standart Tuning.

This is an adaptation of the song, which has a lot of addicional notes that are
very hard to actually put in a tablature. Each "line" is a loop that is played
several times, so it's recommended to play along with the song. 

e|-12--12--10---8---3---3---3---0---0---0------------------------------------|
B|------------------------------------------3---1---1---0---0----------------|
G|--------------------------------------------------------------0---0--------|
D|---------------------------------------------------------------------------|
A|---------------------------------------------------------------------------|
E|---------------------------------------------------------------------------|

e|-12--12--10---8---3---3---3---0---0---0------------------------------------|
B|--0---0---0---0---------------------------3---1---1---0---0-------0--------|
G|----------------------------------4---4---4---4---0---0---0---0---0--------|
D|------------------2---2---2---2--------------------------------------------|
A|---------------------------------------------------------------------------|
E|---------------------------------------------------------------------------|

e|---------------------------------------------------------------------------|
B|---------------------------------------------------------------------------|
G|--4---4-------4---4---4---4-------4---4------------------------------------|
D|--0---0---2---0---0---0---0---2---0---0------------------------------------|
A|----------5-------------------5--------------------------------------------|
E|---------------------------------------------------------------------------|

e|---------------------------------------------------------------------------|
B|---------------------------------------------------------------------------|
G|--0---0---0-------0---0---0---0-------0------------------------------------|
D|--0---0---0---2---0---0---0---0---2---0------------------------------------|
A|--------------5-------------------5----------------------------------------|
E|---------------------------------------------------------------------------|

e|------------------------------------------------------------------7--------|
B|------------------------------0---1---3---3---5---5---5---8---8------------|
G|--0---0---0-------0---0---0---0---0---0---5---5---5---5---5---5---0--------|
D|--0---0---0---2---0---0---2------------------------------------------------|
A|--------------5------------------------------------------------------------|
E|---------------------------------------------------------------------------|

e|-12--12--10---8---3---3---3---0---0---0------------------------------------|
B|--0---0---0---0---------------------------3---1---1---0---0-------0--------|
G|----------------------------------4---4---4---4---0---0---0---0---0--------|
D|------------------2---2---2---2--------------------------------------------|
A|---------------------------------------------------------------------------|
E|---------------------------------------------------------------------------|

e|-12--12--10---8---3--12--12--10---8---3------------------------------------|
B|--0---0---0---0-------0---0---0---0----------------------------------------|
G|------------------0-------------------0------------------------------------|
D|---------------------------------------------------------------------------|
A|---------------------------------------------------------------------------|
E|---------------------------------------------------------------------------|

e|------------------------------------------------------------------7--------|
B|------------------------------0---1---3---3---5---5---5---8---8------------|
G|--0---0---0-------0---0---0---0---0---0---5---5---5---5---5---5---0--------|
D|--0---0---0---2---0---0---2------------------------------------------------|
A|--------------5------------------------------------------------------------|
E|---------------------------------------------------------------------------|

e|-12--12--10---8---3---3---3---0---0---0------------------------------------|
B|--0---0---0---0---------------------------3---1---1---0---0----------------|
G|----------------------------------4---4---4---4---0---0---0---0------------|
D|------------------2---2---2---2--------------------------------------------|
A|---------------------------------------------------------------------------|
E|---------------------------------------------------------------------------|

e|---------------------------------------------------------------------------|
B|---------------------------------------------------------------------------|
G|--4---4-------4---4---4---4-------4---4------------------------------------|
D|--0---0---2---0---0---0---0---2---0---0------------------------------------|
A|----------5-------------------5--------------------------------------------|
E|---------------------------------------------------------------------------|

e|-12--12--10---8---3---3---3---0---0---0------------------------------------|
B|------------------------------------------3---1---1---0---0----------------|
G|--------------------------------------------------------------0--(0)-------|
D|---------------------------------------------------------------------------|
A|---------------------------------------------------------------------------|
E|---------------------------------------------------------------------------|

e|-12--12--10---8---3---3---3---0---0---0------------------------------------|
B|--0---0---0---0---------------------------3---1---1---0---0-------0--------|
G|----------------------------------4---4---4---4---0---0---0---0---0--------|
D|------------------2---2---2---2--------------------------------------------|
A|---------------------------------------------------------------------------|
E|---------------------------------------------------------------------------|

e|---------------------------------------------------------------------------|
B|--0---0---0---0-------------------0---0---0---0----------------------------|
G|--------------------------------------------------0---0---0---0---0--------|
D|------------------2---2---2---2--------------------------------------------|
A|---------------------------------------------------------------------------|
E|---------------------------------------------------------------------------|
Добавлено: 07.07.2012
Другие материалы по этой песне:
  • Аккорды и текст

Страница создана 07.07.2012
http://primanota.ru/bjork/moon-chords.htm
Привет, Гость.
Предлагаем пройти революционный курс по гитаре.
Подарок от PrimaNota.Ru, забирай!