PrimaNota.ru - самый крупный в мире бесплатный архив песенных текстов, аккордов, табулатур и нот


Bjork Brant - Too Many Chiefs Not Enough Indians - таба, видео

Регистрация Запомнить меня
Войти через:  Facebook Google Twitter Vk Yandex Mail.ru

Bjork Brant - Too Many Chiefs Not Enough Indians - таба, видео

Печатать
Просмотров: 317
Уроки эстрадного вокала в Санкт-Петербурге
Tabbed by: DanielBatty
Web: http://www.danielb.me/
-----------------------------------------------------------------------------
Great tune. The solo's probably slightly off but I'm pretty sure the rest is 
accurate.
-----------------------------------------------------------------------------
Artist: Brant Bjork
Track: "Too Many Chiefs, Not Enough Indians"
Album: "Jalamanta"
Tab for: Guitar
Tuning: D (standard)
-----------------------------------------------------------------------------
Song layout:

Rhythm guitar:
Main riff x14
Main riff (slightly altered) x4
Main riff x4
Main riff (slightly altered) x4
Main riff x12
Outro: strum first two chords of Main riff

Lead Guitar 1:
Nothing for 16 bars (main riff x4)
Second riff for the rest of the track
Outro: C|--5h7--|

Lead guitar 2:
Comes in at the same time as the rhythm guitar emerges from the second (slightly
altered) Main riff)
Guitar solo 1 x4
Guitar solo 2 x1
Outro: F|-16-14-14~-12-|
-----------------------------------------------------------------------------
| /   slide up
| \   slide down
| h   hammer-on
| p   pull-off
| ~   vibrato
-----------------------------------------------------------------------------
Main riff:
d|-----------------------------------------------------------------------------------------------|
A|-----------------------------------------------------------------------------------------------|
F|-----------------------------------------------------------------------------------------------|
C|7-7--7-7--7-7--7-7--7-7--7-7--7-7--7-7/-----------10--10-10/--12-12--12-12--12-12--12-12--12-12|
G|7-7--7-7--7-7--7-7--7-7--7-7--7-7--7-7/-10-10--10-10--10-10/--12-12--12-12--12-12--12-12--12-12|
D|5-5--5-5--5-5--5-5--5-5--5-5--5-5--5-5/-8--8---8--8---8--8/---10-10--10-10--10-10--10-10--10-10|

Main riff (slightly altered):
d|-------------------------------------------------------------------------------------|
A|-------------------------------------------------------------------------------------|
F|-------------------------------------------------------------------------------------|
C|7-7--7-7--7-7--7-7--7-7--7-7--7-7--7-7/--10-10--10-5--5-5--5-5--5-5--5-5--5-5--5-5/|-|
G|7-7--7-7--7-7--7-7--7-7--7-7--7-7--7-7/--10-10--10-5--5-5--5-5--5-5--5-5--5-5--5-5/|-|
D|5-5--5-5--5-5--5-5--5-5--5-5--5-5--5-5/--8--8---8--3--3-3--3-3--3-3--3-3--3-3--3-3/|-|

Second riff:
d|---------------------------|
A|---------------------------|
F|---------------------------|
C|--7---7h9p7-5---5s7---7h9-7|
G|---------------------------|
D|5---5---------5-----5------|

Guitar solo (part 1):
d|-------------------------|
A|-------------------------|
F|-------------------------|
C|-------------------------|
G|/7---7h8p7-5-5/7-7-5-5---|
D|-------------------------|

Guitar solo (part 2):
d|---------------------------------------------------------------------------------------|
A|---------------------------------------------------------------------------------------|
F|---------------------------------------------------------------------------------------|
C|/9-7-7h9-10-9-9h10-10/12-10-------12p9-9-9-10-9-------9-9------------------------------|
G|------------------------------------------------12-12-----10-10-10s12-10-9-9s10-10s12--|
D|---------------------------------------------------------------------------------------|

d|-------------------------------------------------------------------------------------|
A|-------------------------------------------------------------------------------------|
F|-------------------------------------------------------------------------------------|
C|------9--7h9p7-7--9-7-5-5h7-------7p5-4-4h5-4h5-5s7-5-4-5s7-5-----------------5------|
G|--------------------------------------------------------------5-5-5h7-5---5h7---7-5s7|
D|-------------------------------------------------------------------------------------|
Добавлено: 20.04.2012
Другие материалы по этой песне:
  • Аккорды и текст

Страница создана 20.04.2012
http://primanota.ru/bjork-brant/too-many-chiefs-not-enough-indians-chords.htm
Привет, Гость.
Предлагаем пройти революционный курс по гитаре.
Подарок от PrimaNota.Ru, забирай!