PrimaNota.ru - самый крупный в мире бесплатный архив песенных текстов, аккордов, табулатур и нот


Bjork Brant - Sun Brother - бас-таба, видео

Регистрация Запомнить меня
Войти через:  Facebook Google Twitter Vk Yandex Mail.ru

Bjork Brant - Sun Brother - бас-таба, видео

Печатать
Просмотров: 78
Уроки эстрадного вокала в Санкт-Петербурге
-------------------------------------------------------------------------------
                             SUN BROTHER - Brant Bjork
-------------------------------------------------------------------------------
Tabbed by: qovneob

Tuning: Standard

INTRO

G|---------------------------------------------------------------------------|
D|---------------------------------------------------------------------------|
A|---------------------------------------------------------------------------|
E|-16~~--------------------------------------16/4----------------------------|
        
MAIN GROOVE

G|------------------------|------------------------|------------------------|
D|-----4-4h6--6-4---4-4h6-|-----4-4h6--6-4---4-4h6-|-----4-4h6--6-4---4-4h6-|
A|----------------6-------|----------------6-------|----------------6-------|
E|-4-4--------------------|-4-4--------------------|-4-4--------------------|

ENDINGS

1:
G|--------------------------|
D|-----4-4h6--6-4-------4h6-|
A|----------------6-4h6-----|
E|-4-4----------------------|

2:
G|----------------------4h6-|
D|-----4-4h6--6-4---4h6-----|
A|----------------6---------|
E|-4-4----------------------|

3:
G|--------------------------|
D|-----4-4h6--6-4---4-4-4h6-|
A|----------------6---------|
E|-4-4----------------------|

MIDDLE THING
G|------------------------------|
D|-6p4-4--44--4--4--44--4-4--44-|
A|------------------------------|
E|------------------------------|


| /  slide up
| \  slide down
| h  hammer-on
| p  pull-off
| ~  vibrato
| +  harmonic
| x  Mute note
===============================================================================
Добавлено: 15.06.2016
Другие материалы по этой песне:

Страница создана 01.07.2012
http://primanota.ru/bjork-brant/sun-brother-chords.htm
Привет, Гость.
Предлагаем пройти революционный курс по гитаре.
Подарок от PrimaNota.Ru, забирай!