PrimaNota.ru - самый крупный в мире бесплатный архив песенных текстов, аккордов, табулатур и нот


Bjork Brant - Somewhere Some Woman - аккорды и текст, видео

Регистрация Запомнить меня
Войти через:  Facebook Google Twitter Vk Yandex Mail.ru

Bjork Brant - Somewhere Some Woman - аккорды и текст, видео

Печатать
Просмотров: 227
Новый альбом группы 'Черный Кузнец' по культовому сериалу 'Сверхъестественное'!
Somewhere Some Woman
Bjork Brant
Somewhere some woman

D5 D5 Bb5 Bb5 x2

D5                  D5
E|----------------------------------
B|----------------------------------
G|--7h8--7--5--5/7----7h8--7--5--5--
D|----------------------------------
A|----------------------------------
E|----------------------------------

Bb5              Bb5
E|----------------------------------
B|----------------------------------
G|----------------------------------
D|--0h3h5--7--3----0h3h5--7--3r0----
A|----------------------------------
E|----------------------------------

D5
   Somewhere in the world
D5                              Bb5
   Somewhere in the world right now
                     Bb5
Some woman is lovin' you

D5
  Somewhere in the world
D5                             Bb5
  Somewhere in the world right now
                      Bb5
Some woman is lovin' you

Bb
  What you gonna do?
Bb                        Bb
  What you gonna do right now, yeah

E|----------
B|--3h6-----
G|-------5--
D|----------
A|----------
E|----------

Bb
  What you gonna do?
Bb                        Bb
  What you gonna do right now?

E|--------------
B|--------------
G|--------------
D|--0h3h5--7--3-
A|--------------
E|--------------

D5
   Somewhere in the world
D5                              Bb5
   Somewhere in the world right now
                      Bb5
Some woman is lovin' you

D5
  Somewhere in the world
D5                             Bb5
  Somewhere in the world right now
                      Bb5
Some woman is lovin' you

Bb
  What you gonna do?
Bb                        Bb
  What you gonna do right now, yeah

Bb
  What you gonna do?
Bb                        Bb
  What you gonna do right now, yeah


Transcription: Stevan Golubovic

Добавлено: 31.07.2014
Другие материалы по этой песне:
  • Аккорды и текст

Страница создана 31.07.2014
http://primanota.ru/bjork-brant/somewhere-some-woman-chords.htm
Привет, Гость.
Предлагаем пройти революционный курс по гитаре.
Подарок от PrimaNota.Ru, забирай!