PrimaNota.ru - самый крупный в мире бесплатный архив песенных текстов, аккордов, табулатур и нот


Bjork Brant - Lets Get Chinese Eyes - бас-таба, видео

Регистрация Запомнить меня
Войти через:  Facebook Google Twitter Vk Yandex Mail.ru

Bjork Brant - Lets Get Chinese Eyes - бас-таба, видео

Печатать
Просмотров: 78
-------------------------------------------------------------------------------
                             Let's Get Chinese Eyes - Brant Bjork
-------------------------------------------------------------------------------
Tabbed by: martioux
E-mail: marioalbertengo@gmail.com

Tuning: Standard

Start: 0:17

Part 1: 0:17 - 1:46

G|---------------------------|
D|---------------------------|
A|--7h9-9-7-7-7--------------|
E|---------------9-9-7-7-7---|x20

Part 2: 1:46 - 2:20

G|---------------------------------------------------------------------------|
D|----------------5---------------5---------------5-----------------------5--|
A|------3-0-----3-------3-0-----3-------3-0-----3-------3-0-----3-0-----3----|
E|--3h5-----3h5-----3h5-----3h5-----3h5-----3h5-----3h5-----3h5-----3h5------|

G|-----------------------------|
D|--------5--------------------|
A|------3----------------------|
E|--3h5------------------------|x2

Final Part 2: 2:20 - 2:23

G|------------------|
D|----------3h5-0---|
A|------3h5---------|
E|--3h5-------------|

Repeat Part 1: 2:25 - 4:26

Repeat Part 2: 4:26 - 4:46




| /  slide up
| \  slide down
| h  hammer-on
| p  pull-off
| ~  vibrato
| +  harmonic
| x  Mute note
===============================================================================

This is my first tab to this page. Any question or correction is welcome. Let's Rock and Enjoy.

Martioux.
Добавлено: 25.11.2015
Вам также может быть интересно:
Другие материалы по этой песне:
  • Аккорды и текст

Страница создана 25.11.2015
http://primanota.ru/bjork-brant/lets-get-chinese-eyes-chords.htm
Привет, Гость.
Предлагаем пройти революционный курс по гитаре.
Подарок от PrimaNota.Ru, забирай!