PrimaNota.ru - самый крупный в мире бесплатный архив песенных текстов, аккордов, табулатур и нот


Bj The Chicago Kid - Smokin And Ridin - бас-таба, видео

Регистрация Запомнить меня
Войти через:  Facebook Google Twitter Vk Yandex Mail.ru

Bj The Chicago Kid - Smokin And Ridin - бас-таба, видео

Печатать
Просмотров: 95
Tabbed by: 6METAL6BASSIST6
E-mail: petergriffinav@gmail.com

Tuning: EADG

G|----------------------------------------------------------------|
D|--------------------------------------------------------------/-|
A|----------------------------------------------------------------|
E|----------------------------------------------------------------|

G|----------------------------------------------------------------|
D|5-----/-5-/-5-/-5-----/-5-/-5-/-5-------6-----------6-----------|
A|----------------------------------------------------------------|
E|----------------------------------------------------------------|

G|8-------8-------7---7---7---5---5---5---------------------------|
D|--------------------------------------/-5-/-5-/-5-/-5-/-5-/-5---|
A|----------------------------------------------------------------|
E|----------------------------------------------------------------|

G|8-------8---8---7---7---7---5---5---5---------------------------|
D|--------------------------------------/-5-/-5-/-5---6-----------|
A|----------------------------------------------------------------|
E|----------------------------------------------------------------|

G|8---8---8---8---7---7---7---5---5---5---------------------------|
D|--------------------------------------/-5-/-5-/-5-/-5-/-5-/-5---|
A|----------------------------------------------------------------|
E|----------------------------------------------------------------|

G|8-------8-------7---7---7---5---5---5---------------------------|
D|----------------------------------------6-----------6-----------|
A|----------------------------------------------------------------|
E|----------------------------------------------------------------|

G|8-------8-------7---7---7---5---5---5---------------------------|
D|--------------------------------------/-5-/-5-/-5-/-5-/-5-/-5---|
A|----------------------------------------------------------------|
E|----------------------------------------------------------------|

G|8-------8---8---7---7---7---5---5---5---------------------------|
D|--------------------------------------/-5-/-5-/-5---6-----------|
A|----------------------------------------------------------------|
E|----------------------------------------------------------------|

G|----------------7---7---7---5---5---5---------------------------|
D|--------------------------------------/-5-/-5-/-5-/-5-/-5-/-5---|
A|----------------------------------------------------------------|
E|----------------------------------------------------------------|

G|----------------------------------------------------------------|
D|6-----------6---6-----------6-----------6-------6---------------|
A|----------------------------------------------------------------|
E|----------------------------------------------------------------|

0:37

G|8-------8-------7---7---7---5---5---5---------------------------|
D|--------------------------------------/-5-/-5-/-5-/-5-/-5-/-5---|
A|----------------------------------------------------------------|
E|----------------------------------------------------------------|

G|8-------8---8---7---7---7---5---5---5---------------------------|
D|--------------------------------------/-5-/-5-/-5---6-----------|
A|----------------------------------------------------------------|
E|----------------------------------------------------------------|

G|8---8---8---8---7---7---7---5---5---5---------------------------|
D|--------------------------------------/-5-/-5-/-5-/-5-/-5-/-5---|
A|----------------------------------------------------------------|
E|----------------------------------------------------------------|

G|8-------8-------7---7---7---5---5---5---------------------------|
D|----------------------------------------6-----------6-----------|
A|----------------------------------------------------------------|
E|----------------------------------------------------------------|

G|----------------------------------------------------------------|
D|--------------------------------------------------------------/-|
A|----------------------------------------------------------------|
E|----------------------------------------------------------------|

G|----------------------------------------------------------------|
D|5-----/-5-/-5-/-5-----/-5-/-5-/-5-------6-----------6-----------|
A|----------------------------------------------------------------|
E|----------------------------------------------------------------|

0:59

G|8-------8-------7---7---7---5---5---5---------------------------|
D|--------------------------------------/-5-/-5-/-5-/-5-/-5-/-5---|
A|----------------------------------------------------------------|
E|----------------------------------------------------------------|

G|8-------8---8---7---7---7---5---5---5---------------------------|
D|--------------------------------------/-5-/-5-/-5---6-----------|
A|----------------------------------------------------------------|
E|----------------------------------------------------------------|

G|8---8---8---8---7---7---7---5---5---5---------------------------|
D|----------------------------------------5-----------------------|
A|----------------------------------------------------------------|
E|----------------------------------------------------------------|

G|------------8---7---7-------5---5-------------------------------|
D|----------------------------------------6-----------6-----------|
A|----------------------------------------------------------------|
E|----------------------------------------------------------------|

G|8-------8-------7---7---7---5---5---5---------------------------|
D|--------------------------------------/-5-/-5-/-5-/-5-/-5-/-5---|
A|----------------------------------------------------------------|
E|----------------------------------------------------------------|

G|8-------8---8---7---7---7---5---5---5---------------------------|
D|--------------------------------------/-5-/-5-/-5---6-----------|
A|----------------------------------------------------------------|
E|----------------------------------------------------------------|

G|8---8---8---8---7---7---7---5---5---5---------------------------|
D|--------------------------------------/-5-/-5-/-5-/-5-/-5-/-5---|
A|----------------------------------------------------------------|
E|----------------------------------------------------------------|

G|----------------------------------------------------------------|
D|6-----------6---6-----------6-----------6-----------------------|
A|----------------------------------------------------------------|
E|----------------------------------------------------------------|

1:27

G|8-------8-------7---7---7---5---5---5---------------------------|
D|--------------------------------------/-5-/-5-/-5-/-5-/-5-/-5---|
A|----------------------------------------------------------------|
E|----------------------------------------------------------------|

G|8-------8---8---7---7---7---5---5---5---------------------------|
D|--------------------------------------/-5-/-5-/-5---6-----------|
A|----------------------------------------------------------------|
E|----------------------------------------------------------------|

G|8---8---8---8---7---7---7---5---5---5---------------------------|
D|--------------------------------------/-5-/-5-/-5-/-5-/-5-/-5---|
A|----------------------------------------------------------------|
E|----------------------------------------------------------------|

G|8---8---8---8---7---7---7---5---5---5---------------------------|
D|----------------------------------------6-----------6-----------|
A|----------------------------------------------------------------|
E|----------------------------------------------------------------|

G|----------------------------------------------------------------|.
D|--------------------------------------------------------------/-|.
A|----------------------------------------------------------------|.
E|----------------------------------------------------------------|.
                                                                   . x2
G|----------------------------------------------------------------|.
D|5-----/-5-/-5-/-5-----/-5-/-5-/-5-------6-----------6-----------|.
A|----------------------------------------------------------------|.
E|----------------------------------------------------------------|.

1:57

G|8-------8-------7---7---7---5---5---5---------------------------|
D|--------------------------------------/-5-/-5-------------------|
A|----------------------------------------------------------------|
E|----------------------------------------------------------------|

G|8---8---8---8---7---7---7---5---5---5---------------------------|
D|----------------------------------------6-----------------------|
A|----------------------------------------------------------------|
E|----------------------------------------------------------------|

G|8-------8-------7---7---7---5---5---5---------------------------|
D|--------------------------------------/-5-/-5-/-5-/-5-/-5-/-5---|
A|----------------------------------------------------------------|
E|----------------------------------------------------------------|

G|8-------8-------7---7---7---5---5---5---------------------------|
D|----------------------------------------6-----------6-----------|
A|----------------------------------------------------------------|
E|----------------------------------------------------------------|

G|8-------8-------7---7---7---5---5---5---------------------------|
D|--------------------------------------/-5-/-5-/-5-/-5-/-5-/-5---| x2
A|----------------------------------------------------------------|
E|----------------------------------------------------------------|

G|8---8---8---8---7---7---7---5---5---5---------------------------|
D|--------------------------------------/-5-/-5-/-5-/-5-/-5-/-5---|
A|----------------------------------------------------------------|
E|----------------------------------------------------------------|

G|----------------------------------------------------------------|
D|6-----------6---6-----------6-----------------------------------|
A|----------------------------------------------------------------|
E|----------------------------------------------------------------|

2:25

G|8-------8-------7---7---7---5---5---5---------------------------|
D|--------------------------------------/-5-/-5-/-5-/-5-/-5-/-5---|
A|----------------------------------------------------------------|
E|----------------------------------------------------------------|

G|8-------8-------7---7---7---5---5---5---------------------------|
D|----------------------------------------6-----------6-----------|
A|----------------------------------------------------------------|
E|----------------------------------------------------------------|

G|8-------8-------7---7---7---5---5---5---------------------------|
D|--------------------------------------/-5-/-5-/-5-/-5-/-5-/-5---|
A|----------------------------------------------------------------|
E|----------------------------------------------------------------|

G|----------------------------------------------------------------|
D|6-----------6---6-----------6-----------6-----------------------|
A|----------------------------------------------------------------|
E|----------------------------------------------------------------|

G|----------------------------------------------------------------|.
D|--------------------------------------------------------------/-|.
A|----------------------------------------------------------------|.
E|----------------------------------------------------------------|.
                                                                   . x3
G|----------------------------------------------------------------|.
D|5-----/-5-/-5-/-5-----/-5-/-5-/-5-------6-----------6-----------|.
A|----------------------------------------------------------------|.
E|----------------------------------------------------------------|.

3:02

G|8-------8-------7---7---7---5---5---5---------------------------|
D|--------------------------------------/-5-/-5-------------------|
A|----------------------------------------------------------------|
E|----------------------------------------------------------------|

G|------------8---7---7-------5---5-------------------------------|
D|----------------------------------------6-----------6-----------|
A|----------------------------------------------------------------|
E|----------------------------------------------------------------|

G|8-------8-------7---7---7---5---5---5---------------------------|
D|--------------------------------------/-5-/-5-/-5-/-5-/-5-/-5---|
A|----------------------------------------------------------------|
E|----------------------------------------------------------------|

G|8---8---8-------7---7---7---5---5---5---------------------------|
D|--------------------------------------/-5-/-5-/-5---6-----------|
A|----------------------------------------------------------------|
E|----------------------------------------------------------------|

G|8---9---8---8---7---7---7---5---5---5---------------------------|
D|--------------------------------------/-5-/-5-------------------|
A|----------------------------------------------------------------|
E|----------------------------------------------------------------|

G|------------8---7---7-------5---5-------------------------------|
D|----------------------------------------6-----------6-----------|
A|----------------------------------------------------------------|
E|----------------------------------------------------------------|

G|8-------8-------7---7---7---5---5---5---------------------------|
D|--------------------------------------/-5-/-5-/-5-/-5-/-5-/-5---| fades out here.
A|----------------------------------------------------------------|
E|----------------------------------------------------------------|
Добавлено: 08.11.2015
Другие материалы по этой песне:
  • Аккорды и текст

Страница создана 08.11.2015
http://primanota.ru/bj-chicago-kid/smokin-and-ridin-chords.htm
Привет, Гость.
Предлагаем пройти революционный курс по гитаре.
Подарок от PrimaNota.Ru, забирай!