PrimaNota.ru - самый крупный в мире бесплатный архив песенных текстов, аккордов, табулатур и нот


Bivattchee - Taiyou No Mannaka E To The Center Of The Sun - таба, бас-таба, видео

Регистрация Запомнить меня
Войти через:  Facebook Google Twitter Vk Yandex Mail.ru

Bivattchee - Taiyou No Mannaka E To The Center Of The Sun - таба, бас-таба, видео

Печатать
Просмотров: 114
http://www.sonymusic.co.jp/Music/Info/bivattchee/ (Sony Music Japan band's website)
http://www.bivattchee.com/main.html  (Official website)As recorded by Bivattchee

Words and Music by Bivattchee
Transcribed by IQC

Gtr I (Eb Ab Db Gb Bb Eb) - 'Guitar 1 (Centered)'
Gtr II (Eb Ab Db Gb Bb Eb) - 'Guitar 2 (Right side)'
Gtr III (Eb Ab Db Gb Bb Eb) - 'Guitar 3 (Left side)'
Gtr IV (Eb Ab Db Gb Bb Eb) - 'Guitar 4 (Clean)'

I don't know if it's my song, but the volume of the guitar, at times, 
is very low and it was hard to figure out what was being played. 
I based most of the chords on what I knew the bass played. Some parts might be off, but is really close.

 Intro
  Q=109                                              1.
 4/4
  Gtr I
  S S S S S S  S  S  S  S  S  S  S e S     W          W          W
|--------------------------------------||-----------|----------|------|
|--------------------------------------||o----------|----------|------|
|-7-7-7S9-9-9S11-11-11S12-12-12S11S9---||-----------|----------|-2----|
|--------------------------------------||--4--------|-5--------|-2----|
|-5-5-5S7-7-7S=9--9--9S10-10-10S=9S7---||o-4--------|-5--------|-0----|
|--------------------------------------||--2--------|-3--------|------|


               2.
  W            W          H     H        S S S S S S S S S S S S S e S
|-----------||----------|--------------|-------------------------------|
|----------o||----------|------10------|-------------------------------|
|-4---------||----------|-2-----9------|-7-7-7-7-7-7-7-7-7-7-7-7-7-6---|
|-4---------||-5--------|-2-----7------|-5-5-5-5-5-5-5-5-5-5-5-5-5-5---|
|-2--------o||-5--------|-0------------|-5-5-5-5-5-5-5-5-5-5-5-5-5-5---|
|-----------||-3--------|--------------|-------------------------------|
|
| Gtr I
| W            W          H     E.E.E    W
|-----------||----------|--------------|-------------------------------|
|----------o||----------|--------------|-------------------------------|
|-----------||----------|-------9S7S9--|-------------------------------|
|-----------||----------|-------7S5S7--|-------------------------------|
|----------o||----------|--------------|-------------------------------|
|-----------||----------|--------------|-------------------------------|


 Verse
  E E E E E E E E   E E E E E E E E   E E E E E E E E   E E E E E E E E
|-----------------|-----------------|-----------------|-----------------|
|-----------------|-----------------|-----------------|-----------------|
|-7-7-7-7-7-7-7-7-|-7-7-7-7-7-7-7-7-|-4-4-4-4-4-4-4-4-|-4-4-4-4-4-4-4-4-|
|-7-7-7-7-7-7-7-7-|-7-7-7-7-7-7-7-7-|-4-4-4-4-4-4-4-4-|-4-4-4-4-4-4-4-4-|
|-5-5-5-5-5-5-5-5-|-4-4-4-4-4-4-4-4-|-2-2-2-2-2-2-2-2-|-2-2-2-2-2-2-2-2-|
|-----------------|-----------------|-----------------|-----------------|


  E E E E E E E E    E  E E  E  E E   E  E
|-----------------|------------------------|
|-----------------|------------------------|
|-7-7-7-7-7-7-7-7-|--7--7-7--7--7-7---7--7-|
|-7-7-7-7-7-7-7-7-|--7--7-7--7--7-7---7--7-|
|-5-5-5-5-5-5-5-5-|--4--4-4--4--4-4---4--4-|
|-----------------|------------------------|
|
| Gtr III
| W                 +Q.     +Q    E.  E.
|-2---------------|-(2)-----(2)-------2----|
|-3---------------|-(3)-----(3)-------3----|
|-2---------------|-(2)-----(2)---4--(4)---|
|-0---------------|-(0)-----(0)------------|
|-----------------|------------------------|
|-----------------|------------------------|


   E  E E E E E E E    E  E E E E E E E
|-------------------|-------------------|
|-------------------|-------------------|
|--4--4-4-4-4-4-4-4-|--4--4-4-4-4-4-4-4-|
|--4--4-4-4-4-4-4-4-|--4--4-4-4-4-4-4-4-|
|--2--2-2-2-2-2-2-2-|--2--2-2-2-2-2-2-2-|
|-------------------|-------------------|
|
|  W                  +W
|-------------------|-------------------|
|-------------------|-------------------|
|-(4)---------------|-(4)---------------|
|--4----------------|-(4)---------------|
|--2----------------|-(2)---------------|
|-------------------|-------------------|


  W                       W
|-2---------------------|-2---------------------|
|-3---------------------|-3---------------------|
|-2---------------------|-2---------------------|
|-0---------------------|-x---------------------|
|-0---------------------|-4---------------------|
|-----------------------|-----------------------|
|
| E.  S   E   Q.   +Q     E.  S   E   Q.   +Q
|-----------------------|-----------------------|
|-----7--(7)-(7)---(7)--|-----7--(7)-(7)---(7)--|
|---------7--(7)---(7)--|---------7--(7)---(7)--|
|-7--(7)-(7)--7----(7)--|-7--(7)-(7)--7----(7)--|
|-5--(5)-(5)-(5)---(5)--|-4--(4)-(4)-(4)---(4)--|
|-----------------------|-----------------------|


  W                       W
|-----------------------|-----------------------|
|-3---------------------|-3---------------------|
|-4---------------------|-4---------------------|
|-4---------------------|-4---------------------|
|-2---------------------|-2---------------------|
|-----------------------|-----------------------|
|
| E.  S   E   Q.   +Q     E.  S   E   Q.   +Q
|-----------------------|-----------------------|
|-----7--(7)-(7)---(7)--|-----7--(7)-(7)---(7)--|
|---------7--(7)---(7)--|---------7--(7)---(7)--|
|-7--(7)-(7)--7----(7)--|-7--(7)-(7)--7----(7)--|
|-----------------------|-----------------------|
|-7--(7)-(7)-(7)---(7)--|-7--(7)-(7)-(7)---(7)--|


  Gtr II
  PM|   PM|     PM|     PM|     PM|   PM|     PM|     PM|
  S S E S S E   S S E   S S E   S S E S S E   S S E   S S E
|-----------------------------|-----------------------------|
|-----------------------------|-----------------------------|
|-7-7-7-7-7-7---7-7-7---7-7-7-|-7-7-7-7-7-7---7-7-7---7-7-7-|
|-7-7-7-7-7-7---7-7-7---7-7-7-|-7-7-7-7-7-7---7-7-7---7-7-7-|
|-5-5-5-5-5-5---5-5-5---5-5-5-|-4-4-4-4-4-4---4-4-4---4-4-4-|
|-----------------------------|-----------------------------|
|
| PM|   PM    PM    PM    PM    PM|   PM    PM    PM|     PM-
| S S E S E   S E   S E   S E   S S E S E   S E   S S E   E
|-----------------------------|-----------------------------|
|-----------------------------|-----------------------------|
|-7-7-7-7-7---7-7---7-7---7-7-|-7-7-7-7-7---7-7---7-7-7---7-|
|-7-7-7-7-7---7-7---7-7---7-7-|-7-7-7-7-7---7-7---7-7-7---7-|
|-5-5-5-5-5---5-5---5-5---5-5-|-4-4-4-4-4---4-4---4-4-4---4-|
|-----------------------------|-----------------------------|


  PM|   PM|     PM|     PM|
  S S E S S E   S S E   S S E   H     S   S  S  S   E.  S
|-----------------------------|----------------------------|
|-----------------------------|-----------<3>-----|
|-4-4-4-4-4-4---4-4-4---4-4-4-|-----------<3>-----|
|-4-4-4-4-4-4---4-4-4---4-4-4-|-----------<3>-----|
|-2-2-2-2-2-2---2-2-2---2-2-2-|----------------------------|
|-----------------------------|----------------------------|
|
|---|   PM    PM    PM    PM
| S S E S E   S E   S E   S E   W
|-----------------------------|----------------------------|
|-----------------------------|----------------------------|
|-4-4-4-4-4---4-4---4-4---4-4-|----------------------------|
|-4-4-4-4-4---4-4---4-4---4-4-|----------------------------|
|-2-2-2-2-2---2-2---2-2---2-2-|----------------------------|
|-----------------------------|----------------------------|


 Pre-Chorus
  Gtr I
  W                +W                  W
|-3--------------|-(3)---------------|-2-------------------------------------|
|-0--------------|-(0)---------------|-3-------------------------------------|
|-0--------------|-(0)---------------|-2-------------------------------------|
|-0--------------|-(0)---------------|-0-------------------------------------|
|-2--------------|-(2)---------------|---------------------------------------|
|-3--------------|-(3)---------------|---------------------------------------|
|
| Gtr II
| H    E a E E E   +W                  E. E  S  S  S  S  S  S  S  S  S  S  S
|----------------|-------------------|---------------------------------------|
|----------------|-------------------|---------------------------------------|
|----------------|-------------------|---------------------------------------|
|--------7s9s7s4-|-(4)---------------|---------------------------------------|
|------5---------|-------------------|-7s=9--9--9--9--9--9--9--9--9--9--9--9-|
|----------------|-------------------|---------------------------------------|
|
| Gtr III
| W                 H     Q  S S S S   E. E  S  S  S  S  S  S  S  S  S  S  S
|----------------|-------------------|---------------------------------------|
|----------------|-------------------|---------------------------------------|
|----------------|-------------------|-9s11-11-11-11-11-11-11-11-11-11-11-11s|
|----------------|-------------x-x-x-|---------------------------------------|
|----------------|-------------x-x-x-|-7s=9--9--9--9--9--9--9--9--9--9--9--9s|
|----------------|-------------x-x-x-|---------------------------------------|


  +W
|-(2)---------------------------------|
|-(3)---------------------------------|
|-(2)---------------------------------|
|-(0)---------------------------------|
|-------------------------------------|
|-------------------------------------|
|
|  E.      E    S    S   S E E E E
|-------------------------------------|
|-------------------------------------|
|-------------------------------------|
|-------------------------------------|
|--7s======9----9----9---9-7s9s7s5----|
|-------------------------------------|
|
|  |--3--|    |---3----|
|  E  E  E    E    E   E   H
|-------------------------------------|
|-------------------------------------|
|-14-12-11---12---11---9---7----------|
|-------------------------------------|
|-12-10--9---10----9---7---5----------|
|-------------------------------------|


  Gtr I
   W           +W           E.  E.  Q.   +Q     +W
|------------|------------|-------------------|--------|
|------------|------------|---------3----(3)--|-(3)----|
|--9---------|-(9)--------|---------4----(4)--|-(4)----|
|------------|------------|-----4--(4)---(4)--|-(4)----|
|--7---------|-(7)--------|-2--(2)-(2)---(2)--|-(2)----|
|-(0)--------|-(0)--------|-------------------|--------|


  W          E.  E.  Q.   +Q     E E E E E E E E   E E E E E Q  E
|----------|-------------------|-----------------|-----------------|
|----------|-------------------|-----------------|-----------------|
|-0--------|---------4----(4)--|-----------------|-----------------|
|-2--------|---------4----(4)--|-5-5-5-5-5-5-5-5-|-7-7-7-7-7-------|
|-2--------|-----4--(4)---(4)--|-5-5-5-5-5-5-5-5-|-7-7-7-7-7-------|
|-0--------|-2--(2)-(2)---(2)--|-3-3-3-3-3-3-3-3-|-5-5-5-5-5-------|


   Chorus
    S S E S S E S S E S S E
||--------------------------|
||o-------------------------|
||--7-7-7-7-7-7-7-7-7-7-7-7-|
||--7-7-7-7-7-7-7-7-7-7-7-7-|
||o-5-5-5-5-5-5-5-5-5-5-5-5-|
||--------------------------|


  S S E S S E S S E S S E   S S E S S E S S E S S E
|-------------------------|--------------------------|
|-------------------------|--------------------------|
|-------------------------|--------------------------|
|-7-7-7-7-7-7-7-7-7-7-7-7-|-9-9-9-9-9-9-9-9-9-9-9-9--|
|-7-7-7-7-7-7-7-7-7-7-7-7-|-9-9-9-9-9-9-9-9-9-9-9-9--|
|-5-5-5-5-5-5-5-5-5-5-5-5-|-7-7-7-7-7-7-7-7-7-7-7-7--|


  S S E S S E S S E S S E     E S E S S S S S S S S S S S
|--------------------------||-----------------------------|
|-------------------------o||-----------------------------|
|--------------------------||-7-7-7-7-7-7-7-7-7-7-7-7-7-7-|
|-5-5-5-5-5-5-5-5-5-5-5-5--||-7-7-7-7-7-7-7-7-7-7-7-7-7-7-|
|-5-5-5-5-5-5-5-5-5-5-5-5-o||-5-5-5-5-5-5-5-5-5-5-5-5-5-5-|
|-3-3-3-3-3-3-3-3-3-3-3-3--||-----------------------------|


  +S  S S S S S S S S S S S S S S S
|------------------------------------|
|------------------------------------|
|-(7)-7-7-7-7-7-7-7-7-7-7-7-7-7-7-7--|
|-(7)-7-7-7-7-7-7-7-7-7-7-7-7-7-7-7--|
|-(5)-5-5-5-5-5-5-5-5-5-5-5-5-5-5-5--|
|------------------------------------|


 Bridge
     PM  PM  PM|   PM--|   PM  PM  PM|   PM--
  Q  S E S E S S E E   S E S E S E S S E E.
|--------------------|----------------------|
|--------------------|----------------------|
|-6--6-6-6-6-6-6-6-6-|-7-7-7-7-7-7-7-7-7-7--|
|-4--4-4-4-4-4-4-4-4-|-5-5-5-5-5-5-5-5-5-5--|
|-4--4-4-4-4-4-4-4-4-|-5-5-5-5-5-5-5-5-5-5--|
|--------------------|----------------------|


 -|   PM  PM  PM|   PM---|      PM    PM    PM|      PM
  S E S E S E S S E E.    S  E  S  E  S  E  S  S  E  E.
|----------------------|----------------------------------|
|----------------------|----------------------------------|
|-9-9-9-9-9-9-9-9-9-9--|-11-11-11-11-11-11-11-11-11-11----|
|-7-7-7-7-7-7-7-7-7-7--|--9--9--9--9--9--9--9--9--9--9----|
|-7-7-7-7-7-7-7-7-7-7--|--9--9--9--9--9--9--9--9--9--9----|
|----------------------|----------------------------------|


  PM  PM  PM  PM|   PM---|   PM  PM  PM|   PM--
  S E S E S E S S E E.   S E S E S E S S E E.
|----------------------|----------------------|
|----------------------|----------------------|
|-6-6-6-6-6-6-6-6-6-6--|-7-7-7-7-7-7-7-7-7-7--|
|-4-4-4-4-4-4-4-4-4-4--|-5-5-5-5-5-5-5-5-5-5--|
|-4-4-4-4-4-4-4-4-4-4--|-5-5-5-5-5-5-5-5-5-5--|
|----------------------|----------------------|


 -|   PM  PM  PM|   PM---|      PM    PM    PM|      PM
  S E S E S E S S E E.    S  E  S  E  S  E  S  S  E  E.
|----------------------|----------------------------------|
|----------------------|----------------------------------|
|-9-9-9-9-9-9-9-9-9-9--|-11-11-11-11-11-11-11-11-11-11----|
|-7-7-7-7-7-7-7-7-7-7--|--9--9--9--9--9--9--9--9--9--9----|
|-7-7-7-7-7-7-7-7-7-7--|--9--9--9--9--9--9--9--9--9--9----|
|----------------------|----------------------------------|


 Pre-Chorus
  Gtr IV
  E. E. Q  E E E   E. E. Q  E E E   E. E. Q  E E E   E. E. Q  E E E
|----------------|----------------|----------------|------------------|
|----------5-----|----------3-----|----------3-----|----------3-------|
|-------4----4---|-------4----4---|-------2----2---|-------4----4-----|
|----5---------5-|----4---------4-|----2---------2-|----4---------4---|
|-3--------------|-2--------------|-0--------------|-2----------------|
|----------------|----------------|----------------|------------------|


  Gtr II
                                                   PM------|
  W          E.  E.  Q.   +Q     E E E E E E E E   S S S S E H    E
|----------|-------------------|-----------------|-------------------|
|----------|-------------------|-----------------|-------------------|
|-0--------|---------4----(4)--|-----------------|-------------------|
|-2--------|---------4----(4)--|-5-5-5-5-5-5-5-5-|-7-7---7-7---------|
|-2--------|-----4--(4)---(4)--|-5-5-5-5-5-5-5-5-|-7-7---7-7---------|
|-0--------|-2--(2)-(2)---(2)--|-3-3-3-3-3-3-3-3-|-5-5---5-5---------|


 Out-Chorus
  Gtr I
  E E H    Q    S S S S H    Q    S S S S H.   S S S S S S S S S S S S S S S S
|-------------|-----------------|------------|---------------------------------|
|-------------|-----------------|------------|---------------------------------|
|-7-7-7-------|-----------------|-4-4-4-4-4--|---------------------------------|
|-7-7-7-------|-7-7-7-7-7-------|-4-4-4-4-4--|-5-5-5-5-5-5-5-5-5-5-5-5-5-5-5-5-|
|-5-5-5-------|-7-7-7-7-7-------|-2-2-2-2-2--|-5-5-5-5-5-5-5-5-5-5-5-5-5-5-5-5-|
|-5-5-5-------|-5-5-5-5-5-------|-2-2-2-2-2--|-3-3-3-3-3-3-3-3-3-3-3-3-3-3-3-3-|


    S S E S S E S S E S S E
||--------------------------|
||o-------------------------|
||--7-7-7-7-7-7-7-7-7-7-7-7-|
||--7-7-7-7-7-7-7-7-7-7-7-7-|
||o-5-5-5-5-5-5-5-5-5-5-5-5-|
||--------------------------|


  S S E S S E S S E S S E   S S E S S E S S E S S E
|-------------------------|--------------------------|
|-------------------------|--------------------------|
|-2-2-2-2-2-2-3-3-3-3-3-3-|-4-4-4-4-4-4-4-4-4-4-4-4--|
|-2-2-2-2-2-2-3-3-3-3-3-3-|-4-4-4-4-4-4-4-4-4-4-4-4--|
|-0-0-0-0-0-0-1-1-1-1-1-1-|-2-2-2-2-2-2-2-2-2-2-2-2--|
|-------------------------|--------------------------|


  S S E S S E S S E S S E
|--------------------------||
|-------------------------o||
|--------------------------||
|-5-5-5-5-5-5-5-5-5-5-5-5--||
|-5-5-5-5-5-5-5-5-5-5-5-5-o||
|-3-3-3-3-3-3-3-3-3-3-3-3--||


  S S E S S E S S E S S E   S S E S S E S S E S S E
|-------------------------|---------------------------|
|-------------------------|---------------------------|
|-2-2-2-2-2-2-2-2-2-2-2-2-|-2-2-2-2-2-2-2-2-2-2-2-2---|
|-2-2-2-2-2-2-2-2-2-2-2-2-|-2-2-2-2-2-2-2-2-2-2-2-2---|
|-0-0-0-0-0-0-0-0-0-0-0-0-|-0-0-0-0-0-0-0-0-0-0-0-0---|
|-------------------------|---------------------------|


  S S E S S E S S E S S E   S S E S S E S S E S S E
|-------------------------|-------------------------|
|-------------------------|-------------------------|
|-3-3-3-3-3-3-3-3-3-3-3-3-|-5-5-5-5-5-5-5-5-5-5-5-5-|
|-3-3-3-3-3-3-3-3-3-3-3-3-|-5-5-5-5-5-5-5-5-5-5-5-5-|
|-1-1-1-1-1-1-1-1-1-1-1-1-|-3-3-3-3-3-3-3-3-3-3-3-3-|
|-------------------------|-------------------------|
|
| Gtr I
| W                         W
|-------------------------|-------------------------|
|-------------------------|-------------------------|
|-------------------------|-------------------------|
|-------------------------|-------------------------|
|-------------------------|-------------------------|
|-------------------------|-------------------------|


   S   S  S  S   E  H    E    W
|--------------------------|--------*|
|------<3>--------|--------*|
|------<3>--------|--------*|
|------<3>--------|--------*|
|--------------------------|--------*|
|--------------------------|--------*|
|
|  Q             H.          +W
|----------------2---------|-(2)----*|
|----------------3---------|-(3)----*|
|----------------2---------|-(2)----*|
|----------------0---------|-(0)----*|
|--------------------------|--------*|
|--------------------------|--------*|


Duration Legend
---------------
W - whole; H - half; Q - quarter; E - 8th; S - 16th; T - 32nd; X - 64th; a - acciaccatura
+ - note tied to previous; . - note dotted; .. - note double dotted
Uncapitalized letters represent notes that are staccato (1/2 duration)
Irregular groupings are notated above the duration line
Duration letters will always appear directly above the note/fret number it represents the
duration for.  Duration letters with no fret number below them represent rests.  Multi-
bar rests are notated in the form Wxn, where n is the number of bars to rest for.  Low
melody durations appear below the staff

Tablature Legend
----------------
 h   - hammer-on
 p   - pull-off
 b   - bend
 pb  - pre-bend
 r   - bend release (if no number after the r, then release immediately)
 /\  - slide into or out of (from/to "nowhere")
 s   - legato slide
 S   - shift slide
  - natural harmonic
[n]  - artificial harmonic
n(n) - tapped harmonic
 ~   - vibrato
 tr  - trill
 T   - tap
 TP  - trem. picking
 PM  - palm muting
\n/  - tremolo bar dip; n = amount to dip
 \n  - tremolo bar down
 n/  - tremolo bar up
/n\  - tremolo bar inverted dip
 =   - hold bend; also acts as connecting device for hammers/pulls
 <>  - volume swell (louder/softer)
 x   - on rhythm slash represents muted slash
 o   - on rhythm slash represents single note slash

Misc Legend
-----------
 |  - bar
||  - double bar
||o - repeat start
o|| - repeat end
*|  - double bar (ending)
 :  - bar (freetime)
 $  - Segno
 &  - Coda
Tempo markers -  = BPM(8/16=s8/s16), where s8 = swing 8ths, s16 = swing 16ths


Добавлено: 01.05.2012
Другие материалы по этой песне:

Страница создана 10.04.2012
http://primanota.ru/bivattchee/taiyou-no-mannaka-e-to-the-center-of-the-sun-chords.htm
Привет, Гость.
Предлагаем пройти революционный курс по гитаре.
Подарок от PrimaNota.Ru, забирай!