PrimaNota.ru - самый крупный в мире бесплатный архив песенных текстов, аккордов, табулатур и нот


Biters - Electric Blood (album) - бас-таба, видео

Регистрация Запомнить меня
Войти через:  Facebook Google Twitter Vk Yandex Mail.ru

Biters - Electric Blood (album) - бас-таба, видео

Печатать
Просмотров: 26
Уроки эстрадного вокала в Санкт-Петербурге
------------------------------------------------------------------------------
                        Biters - Electric Blood (2015)
------------------------------------------------------------------------------

Tabbed by: ChrisT

Tuning: Eb, Ab, Db, Gb

1. Restless Hearts
2. 1975
3. Heart Fulla Rock n Roll
4. Dreams Don't Die
5. Electric Blood
6. The Kids Aren't Alright
7. Low Lives in Hi-Definition
8. Time To Bleed
9. Loose From The Noose
10. Space Age Wasteland


------------------------------------------------------------------------------
                              Restless Hearts
------------------------------------------------------------------------------


Verse 1 (0:15)
Gb|-----------------------------------------------------------------------|
Db|-----------------------------------------------------------------------|
Ab|----16h17~------------------------------------------------3---2---3----|
Eb|-----------------------------------------------------------------------|

Gb|-----------------------------------------------------------------------|
Db|o---------------------------------------------------------------------o|
Ab|o---5-5-5-5-5-5-5-5-5-5-5-5-5-5-5-5-5-5-5-5-5-5-5-5-5-5-5-5-5-5-5-5---o|
Eb|-----------------------------------------------------------------------|

Gb|-----------------------------------------------------------------------|
Db|-----------------------------------------------------------------------|
Ab|----3~----------------------3---2--------------------------------------|
Eb|------------------------------------5~------------------5-5-5-5-5------|

Chorus
Gb|-----------------------------------------------------------------------|
Db|o---------------------------------------------------------------------o|
Ab|o---5-5-5-5-5-----------------------2-2-2-2-2-------------------------o|
Eb|----------------5---3-3-3-3-3---5---------------5---3-3-3-3-3---5------|

Verse 2
Gb|-----------------------------------------------------------------------|
Db|-----------------------------------------------------------------------|
Ab|----5\-----------------------------------------------------------------|
Eb|-----------------------------------------------------------------------|

Gb|-----------------------------------------------------------------------|
Db|-----------------------------------------------------------------------|
Ab|----16h17~------------------------------------------------3---2---3----|
Eb|-----------------------------------------------------------------------|

Gb|-----------------------------------------------------------------------|
Db|o---------------------------------------------------------------------o|
Ab|o---5-5-5-5-5-5-5-5-5-5-5-5-5-5-5-5-5-5-5-5-5-5-5-5-5-5-5-5-5-5-5-5---o|
Eb|-----------------------------------------------------------------------|

Gb|-----------------------------------------------------------------------|
Db|-----------------------------------------------------------------------|
Ab|----3~----------------------3---2--------------------------------------|
Eb|------------------------------------5~------------------5-5-5-5-5------|

Chorus
Gb|-----------------------------------------------------------------------|
Db|o---------------------------------------------------------------------o|
Ab|o---5-5-5-5-5-----------------------2-2-2-2-2-------------------------o|
Eb|----------------5---3-3-3-3-3---5---------------5---3-3-3-3-3---5------|

Gb|-----------------------------------------------------------------------|
Db|o--------------/7---5-5-5-5-5--/7-------------------------------------o|
Ab|o---5-5-5-5-5-----------------------2-2-2-2-2-------------------------o|
Eb|------------------------------------------------5---3-3-3-3-3---5------|

Gb|-----------------------|
Db|-----------------------|
Ab|----3-3-3-3-3-3-2-2----|
Eb|-----------------------|

Gb|-----------------------------------------------------------------------|
Db|-----------------------------------------------------------------------|
Ab|-----------------------------------------------------------------------|
Eb|----5-5-5-5-5-5-5-5-5-5-5-5-5-5-5-5-5-5-5-5-5-5-5-5-5-5-5-5-5-5-5-5----|

Guitar Solo
Gb|-----------------------------------------------------------------------|
Db|o---------------------------------------------------------------------o|
Ab|o---5-5-5-5-5-5-5-5-5-5-5-5-5-5-5-5-5-5-5-5-5-5-5-5-5-5-5-5-5-5-5-5---o|
Eb|-----------------------------------------------------------------------|

Gb|-----------------------------------------------------------------------|
Db|-----------------------------------------------------------------------|
Ab|----3---2---2-3~-------------------------------------------------------|
Eb|-----------------------------------------------------------------------|

Gb|-----------------------------------------------|
Db|-----------------------------------------------|
Ab|----3---2--------------------------------------|
Eb|------------5~--------------------5-5-5-5-5----|

Gb|-----------------------------------------------------------------------|
Db|-----------------------------------------------------------------------|
Ab|-----------------------------------------------------------------------|
Eb|---------------------------------------------------------------10\-----|

Chorus
Gb|-----------------------------------------------------------------------|
Db|---------------/7---5-5-5-5-5--/7--------------------------------------|
Ab|----5-5-5-5-5-----------------------2-2-2-2-2--------------------------|
Eb|------------------------------------------------5---3-3-3-3-3---5------|

Gb|-----------------------------------------------------------------------|
Db|o---------------------------------------------------------------------o|
Ab|o---5-5-5-5-5-----------------------2-2-2-2-2-------------------------o|
Eb|----------------5---3-3-3-3-3---5---------------5---3-3-3-3-3---5------|

Gb|-----------------------|
Db|-----------------------|
Ab|----3-3-3-3-3-3-2-2----|
Eb|-----------------------|

Gb|-----------------------------------------------------------------------|
Db|-----------------------------------------------------------------------|
Ab|-----------------------------------------------------------------------|
Eb|----5-5-5-5-5-5-5-5-5-5-5-5-5-5-5-5-5~---------------------------------|



------------------------------------------------------------------------------
                              1975
------------------------------------------------------------------------------


Intro (0:07)
Gb|------------------------------------------------------------------------|
Db|------------------------------------------------------------------------|
Ab|----17h19---17~-----17h19\9~--------12~-----------9\--------------------|
Eb|------------------------------------------------------------------------|

Gb|------------------------------------------------------------------------|
Db|------------------------------------------------------------------------|
Ab|----2-2-----------------------------5-5---------------------------------|
Eb|--------------------3-3---------------------------7\2~------------------|

Gb|-----------------------|
Db|-----------------------|
Ab|-----------------------|
Eb|----5~--------3-2-0----|

Verse
Gb|------------------------------------------------------------------------|
Db|o-----------------------------------------------------------------------|
Ab|o-----------4h5-----------------------------4h5-------------------------|
Eb|----5h7-------------2h3-------------5h7-------------2h3--------3-2-0----|

Gb|------------------------------------------------------------------------|
Db|-----------------------------------------------------------------------o|
Ab|------------4h5-----------------------------4h5------------------------o|
Eb|----5h7-------------2h3-------------5h7-------------2h3-----------------|

Chorus
Gb|------------------------------------------------------------------------|
Db|o-----------------------------------------------------------------------|
Ab|o---2-2-2-2-2-2-2-2-2-2-2-2-5-5-5-5-----------------------------3-------|
Eb|------------------------------------3-3-3-3-3-3-3-3-3-3-3-3-5-----------|

Gb|------------------------------------------------------------------------|
Db|-----------------------------------------------------------------------o|
Ab|----5-5-5-5-5-5-5-5-5-5-5-5-7-7-7-7------------------------------------o|
Eb|------------------------------------2-2-2-2-2-2-2-2-5-5-5-5-5-5-5-5-----|

Verse
Gb|------------------------------------------------------------------------|
Db|o-----------------------------------------------------------------------|
Ab|o-----------4h5-----------------------------4h5-------------------------|
Eb|----5h7-------------2h3-------------5h7-------------2h3--------3-2-0----|

Gb|------------------------------------------------------------------------|
Db|-----------------------------------------------------------------------o|
Ab|------------4h5-----------------------------4h5------------------------o|
Eb|----5h7-------------2h3-------------5h7-------------2h3-----------------|

Chorus
Gb|------------------------------------------------------------------------|
Db|o----------------------------------------------------------------------o|
Ab|o-----------------------------------5-5-5-5-5-5-5-5--------------------o|
Eb|----0-0-0-0-0-0-0-2-3-3-3-3-3-3-3-3-----------------5-5-5-5-5-5-5-5-----|

Guitar Solo
Gb|------------------------------------------------------------------------|
Db|------------------------------------------------------------------------|
Ab|------------------------------------5-5-5-5-5-5-5-5---------------------|
Eb|----0-0-0-0-0-0-0-2-3-3-3-3-3-3-3-3-----------------5-5-5-5-5-5-5-5-----|

Gb|------------------------------------------------------------------------|
Db|------------------------------------------------------------------------|
Ab|------------------------------------------------------------------------|
Eb|----0-0-0-0-0-0-0-2-3-3-3-3-3-3-3-3-5---5---5---5---5---5---5---5-------|

Bridge (guitar only)
Gb|------------------------------------------------------------------------|
Db|------------------------------------------------------------------------|
Ab|------------------------------------------------------------------------|
Eb|------------------------------------------------------------------------|

Gb|----------------------------------7-------------------------------------|
Db|----------------------------7-8-9---------------------------------------|
Ab|----------5---5-6-7---7-8-9---------------5---5-6-7---------------------|
Eb|----5-6-7---------------------------5-6-7-------------------------------|

Chorus
Gb|------------------------------------------------------------------------|
Db|o-----------------------------------------------------------------------|
Ab|o---2-2-2-2-2-2-2-2-2-2-2-2-5-5-5-5-----------------------------3-------|
Eb|------------------------------------3-3-3-3-3-3-3-3-3-3-3-3-5-----------|

Gb|------------------------------------------------------------------------|
Db|-----------------------------------------------------------------------o|
Ab|----5-5-5-5-5-5-5-5-5-5-5-5-7-7-7-7------------------------------------o|
Eb|------------------------------------2-2-2-2-2-2-2-2-5-5-5-5-5-5-5-5-----|

Gb|----------------------------------7-------------------------------7-----|
Db|----------------------------7-8-9---------------------------7-8-9-------|
Ab|----------5---5-6-7---7-8-9---------------5---5-6-7---7-8-9-------------|
Eb|----5-6-7---------------------------5-6-7-------------------------------|

Gb|---------------------------|
Db|---------------------------|
Ab|------------4h5------------|
Eb|----5h7-------------2h3----|



------------------------------------------------------------------------------
                      Heart Fulla Rock 'n' Roll
------------------------------------------------------------------------------


Intro(0:06)
Gb|------------------------------|
Db|------------------------------|
Ab|----3-------------------------|
Eb|--------3---5-----------------|

Verse
Gb|-----------------------------------------------------|---------------|
Db|o---------------------------------------------------o|----7-5--------|
Ab|o---3-----------------------------------------------o|--------7-3----|
Eb|--------3---5----------------------------------------|---------------|

Gb|---------------------------------------------------------------------|
Db|---------------------------------------------------------------------|
Ab|----------------------------------------------------3----------------|
Eb|----5---5---5---5---5---5---5---3---1---1---1---1-----------3--------|

Gb|---------------------------------------|
Db|---------------------------------------|
Ab|----------------------------3----------|
Eb|----1---1---1---1---1-1-1-1-----3------|

Gb|----------------------------------------------------------------------|
Db|----------------------------------------------------------------------|
Ab|----------------5---3-----------3---------------3---------------------|
Eb|----5-------------------------------3---------------5-----------12\---|

Gb|---------------------------------------------------------------------|
Db|---------------------------------------------------------------------|
Ab|----------------5---3-----------3---------------3--------------------|
Eb|----5-------------------------------3---------------5----------------|

Chorus
Gb|---------------------------------------------------------------------|
Db|o-------------------------------------------------------------------o|
Ab|o---------------5---3---3---3---3---------------3-----------3---2---o|
Eb|----5---5---5-----------------------3---3---3-------5---5------------|

Gb|------------------------------|
Db|------------------------------|
Ab|------------------------------|
Eb|----5-------------------------|

Verse
Gb|---------------------------------------------------------------------|
Db|o-------------------------------------------------------------------o|
Ab|o---3-------------------5---3-----------3---------------3-----------o|
Eb|--------3---5-------------------------------3---------------5--------|

Gb|---------------|
Db|----7-5--------|
Ab|--------7-3----|
Eb|---------------|

Gb|---------------------------------------------------------------------|
Db|---------------------------------------------------------------------|
Ab|----------------------------------------------------3----------------|
Eb|----5---5---5---5---5---5---5---3---1---1---1---1-----------3--------|



Gb|---------------------------------------|
Db|---------------------------------------|
Ab|----------------------------3----------|
Eb|----1---1---1---1---1-1-1-1-----3------|

Gb|----------------------------------------------------------------------|
Db|----------------------------------------------------------------------|
Ab|----------------5---3-----------3---------------3---------------------|
Eb|----5-------------------------------3---------------5-----------12\---|

Gb|---------------------------------------------------------------------|
Db|---------------------------------------------------------------------|
Ab|----------------5---3-----------3---------------3--------------------|
Eb|----5-------------------------------3---------------5----------------|

Chorus
Gb|---------------------------------------------------------------------|
Db|o-------------------------------------------------------------------o|
Ab|o---------------5---3---3---3---3---------------3-----------3---2---o|
Eb|----5---5---5-----------------------3---3---3-------5---5------------|

Guitar Solo
Gb|---------------------------------------------------------------------|
Db|o-----------------------------------------------------------3---2----|
Ab|o--------------------------------------------------------------------|
Eb|----5---5---5---5---5---5---5---3---1---1---1---1---1---1------------|

Gb|-----------------------------------------------------------------------------|
Db|----------------------------------------------------------------------------o|
Ab|----5---5---5---5---5---5---3------------3-------------------3-----3--------o|
Eb|--------------------------------3---5--5---5-3-5--2-3-4-5--5---5-3-----3-----|

Bridge
Gb|----------------------------------------------------------------------|
Db|----------------------------------------------------------------------|
Ab|----------------------------3-----------------------------------------|
Eb|----5---5-3-5---5-3-5---5-3-----3---5---5-3-5---5-3-5---5-3-1---3-----|

Gb|---------------------------------------------------------------------|
Db|---------------------------------------------------------------------|
Ab|----------------5---3---3-3-3---3---------------3--------------------|
Eb|----5---5-5-5-----------------------3---3-3-3-------5---5-5-5--------|

Gb|---------------------------------------------------------------------|
Db|---------------------------------------------------------------------|
Ab|----------------5---3---3-3-3-3-3-3----------------------------------|
Eb|----5---5---5-----------------------3-3-3-3-3-3-3-3-3-3-3-3-5--------|

Chorus                                                         Repeat x4
Gb|---------------------------------------------------------------------|
Db|o-------------------------------------------------------------------o|
Ab|o---------------5---3---3---3---3---------------3-----------3---2---o|
Eb|----5---5---5-----------------------3---3---3-------5---5------------|

Gb|------------------------------------------|
Db|------------------------------------------|
Ab|------------------------------------------|
Eb|---------------------------------5---5----|



------------------------------------------------------------------------------
                    Dreams Don't Die
------------------------------------------------------------------------------


Intro (0:06)
Gb|----------------------------------------------------------------------|
Db|----------------------------------------------------------------------|
Ab|-----------------------------------------------------------9-9-9-9----|
Eb|---4-4-4-4-4-4-4-4-4-4-4-4-6-6-6-6-7-7-7-7-7-7-7-7-7-7-7-7------------|

Gb|----------------------------------------------------------------------|
Db|----------------------------------------------------------------------|
Ab|---------------------------6-6-6-6-7-7-7-7-7-7-7-7-9-9-9-9-9-9-9-9----|
Eb|---9-9-9-9-9-9-9-9-9-9-9-9--------------------------------------------|

Verse
Gb|----------------------------------------------------------------------|
Db|o---------------------------------------------------------------------|
Ab|o---------------------------------------------------------------------|
Eb|---4-4-4-4-4-4-4-4-4-4-4-4-4-4-4-4-7-7-7-7-7-7-7-7-7-7-7-7-7-7-7-7----|

Gb|----------------------------------------------------------------------|
Db|---------------------------------------------------------------------o|
Ab|-----------------------------------7-7-7-7-7-7-7-7-7-7-7-7-9-9-9-9---o|
Eb|---9-9-9-9-9-9-9-9-9-9-9-9-9-9-9-9------------------------------------|

Gb|----------------------------------------------------------------------|
Db|----------------------------------------------------------------------|
Ab|---------------------------2------------------------------------------|
Eb|---0~------------------------------2---------------2-2-2-2-2-2-2-2----|

Chorus
Gb|----------------------------------------------------------------------|
Db|----------------------------------------------------------------------|
Ab|---2-2-2-2-2-2-2-2---------2-2-2-2------------------------------------|
Eb|-------------------2-2-2-2---------0-0-0-0-0-0-0-0-0-0-0-0-0-0-0-0----|

Gb|----------------------------------------------------------------------|
Db|----------------------------------------------------------------------|
Ab|---2-2-2-2-2-2-2-2---------2-2-2-2------------------------------------|
Eb|-------------------2-2-2-2---------4-4-4-4-4-4-4-4-4-4-4-4-0-0-0-0----|

Gb|----------------------------------------------------------------------|
Db|----------------------------------------------------------------------|
Ab|---2-2-2-2-2-2-2-2----------------------------------------------------|
Eb|-------------------2-2-2-2-2-2-2-2-4-4-4-4-4-4-4-4-0-0-0-0-0-0-0-0----|

Gb|----------------------------------------------------------------------|
Db|----------------------------------------------------------------------|
Ab|---2-2-2-2-2-2-2-2---------2-2-2-2------------------------------------|
Eb|-------------------2-2-2-2---------0-0-0-0-0-0-0-0-0-0-0-0-------12\--|

Verse
Gb|----------------------------------------------------------------------|
Db|o---------------------------------------------------------------------|
Ab|o---------------------------------------------------------------------|
Eb|---4-4-4-4-4-4-4-4-4-4-4-4-4-4-4-4-7-7-7-7-7-7-7-7-7-7-7-7-7-7-7-7----|

Gb|----------------------------------------------------------------------|
Db|---------------------------------------------------------------------o|
Ab|-----------------------------------7-7-7-7-7-7-7-7-7-7-7-7-9-9-9-9---o|
Eb|---9-9-9-9-9-9-9-9-9-9-9-9-9-9-9-9------------------------------------|

Gb|----------------------------------------------------------------------|
Db|----------------------------------------------------------------------|
Ab|---------------------------2------------------------------------------|
Eb|---0~------------------------------2---------------2-2-2-2-2-2-2-2----|

Chorus
Gb|----------------------------------------------------------------------|
Db|----------------------------------------------------------------------|
Ab|---2-2-2-2-2-2-2-2---------2-2-2-2------------------------------------|
Eb|-------------------2-2-2-2---------0-0-0-0-0-0-0-0-0-0-0-0-0-0-0-0----|

Gb|----------------------------------------------------------------------|
Db|----------------------------------------------------------------------|
Ab|---2-2-2-2-2-2-2-2---------2-2-2-2------------------------------------|
Eb|-------------------2-2-2-2---------4-4-4-4-4-4-4-4-4-4-4-4-0-0-0-0----|

Gb|----------------------------------------------------------------------|
Db|----------------------------------------------------------------------|
Ab|---2-2-2-2-2-2-2-2----------------------------------------------------|
Eb|-------------------2-2-2-2-2-2-2-2-4-4-4-4-4-4-4-4-0-0-0-0-0-0-0-0----|

Gb|----------------------------------------------------------------------|
Db|----------------------------------------------------------------------|
Ab|---2-2-2-2-2-2-2-2---------2-2-2-2------------------------------------|
Eb|-------------------2-2-2-2---------0-0-0-0-0-0-0-0-0-0-0-0-0-0-0-0----|

Gb|--------------------------------------|
Db|--------------------------------------|
Ab|-------------------7-7-6-6-4-4-2-2----|
Eb|---0-0-0-0-0-0-0-0--------------------|

Guitar Solo
Gb|----------------------------------------------------------------------|
Db|o---------------------------------------------------------------------|
Ab|o----------------------------------------------------------9-9-9-9----|
Eb|---4-4-4-4-4-4-4-4-4-4-4-4-6-6-6-6-7-7-7-7-7-7-7-7-7-7-7-7------------|

Gb|----------------------------------------------------------------------|
Db|---------------------------------------------------------------------o|
Ab|---------------------------6-6-6-6-7-7-7-7-7-7-7-7-9-9-9-9-9-9-9-9---o|
Eb|---9-9-9-9-9-9-9-9-9-9-9-9--------------------------------------------|

Gb|----------------------|
Db|----------------------|
Ab|---9-9-9-9-9-9-9-9----|
Eb|----------------------|

Chorus
Gb|----------------------------------------------------------------------|
Db|----------------------------------------------------------------------|
Ab|---2-2-2-2-2-2-2-2---------2-2-2-2------------------------------------|
Eb|-------------------2-2-2-2---------0-0-0-0-0-0-0-0-0-0-0-0-0-0-0-0----|

Gb|----------------------------------------------------------------------|
Db|----------------------------------------------------------------------|
Ab|---2-2-2-2-2-2-2-2---------2-2-2-2------------------------------------|
Eb|-------------------2-2-2-2---------4-4-4-4-4-4-4-4-4-4-4-4-0-0-0-0----|

Gb|----------------------------------------------------------------------|
Db|----------------------------------------------------------------------|
Ab|---2-2-2-2-2-2-2-2----------------------------------------------------|
Eb|-------------------2-2-2-2-2-2-2-2-4-4-4-4-4-4-4-4-0-0-0-0-0-0-0-0----|

Gb|----------------------------------------------------------------------|
Db|----------------------------------------------------------------------|
Ab|---2-2-2-2-2-2-2-2---------2-2-2-2------------------------------------|
Eb|-------------------2-2-2-2---------0-0-0-0-0-0-0-0-0-0-0-0-0-0-0-0----|

Gb|----------------------------------------------------------------------|
Db|----------------------------------------------------------------------|
Ab|---2-2-2-2-2-2-2-2---------2-2-2-2------------------------------------|
Eb|-------------------2-2-2-2---------4-4-4-4-4-4-4-4-4-4-4-4-0-0-0-0----|

Gb|----------------------------------------------------------------------|
Db|----------------------------------------------------------------------|
Ab|---2~----------------------2~-----------------------------------------|
Eb|-------------------2~--------------0~---------------------------------|



------------------------------------------------------------------------------
                          Electric Blood
------------------------------------------------------------------------------


Intro (0:07)
G|----------------------------------------------------------------------|
D|----------------------------------------------------------------------|
A|---2---3-3-3-3-3-3-3-3-3-3-3-3-3-3-3---5-5-5-5-5-5-5-5-5-5-5-5-5-5----|
E|----------------------------------------------------------------------|

Verse
G|----------------------------------------------------------------------|
D|o--------------------------------------------------------------------o|
A|o--2---3-3-3-3-3-3-3-3-3-3-3-3-3-3-3---5-5-5-5-5-5-5-5-5-5-5-5-5-5---o|
E|----------------------------------------------------------------------|

G|----------------------------------------------------------------------|
D|----------------------------------------------------------------------|
A|---3---3-3-3-3-3-3-----------------------------------------------1----|
E|-------------------3---3-3-3-3-3-3-5---5-5-5-5-5-5-5-5-5-5-5-5-5------|

Chorus
G|----------------------------------------------------------------------|
D|----------------------------------------------------------------------|
A|---2---2-2-2-2-2-2-----------------5---5-5-5-5-5-5-5-5-5-5-5-5-5-5----|
E|-------------------3---3-3-3-3-3-3------------------------------------|

G|----------------------------------------------------------------------|
D|----------------------------------------------------------------------|
A|---2---2-2-2-2-2-2-----------------5---5-5-5-5-5-5-5---5---3---1------|
E|-------------------3---3-3-3-3-3-3------------------------------------|

G|----------------------------------------------------------------------|
D|----------------------------------------------------------------------|
A|---2---2-2-2-2-2-2-----------------5---5-5-5-5-5-5--------------------|
E|-------------------3---3-3-3-3-3-3-----------------5---5-5-5-5-5-5----|

G|----------------------------------------------------------------------|
D|----------------------------------------------------------------------|
A|---3---3-3-3-3-3-3-----------------5---5-5-5-5-5-5-5-5-5-5-5-5-5-5----|
E|-------------------3---3-3-3-3-3-3------------------------------------|

Verse
G|----------------------------------------------------------------------|
D|o--------------------------------------------------------------------o|
A|o--2---3-3-3-3-3-3-3-3-3-3-3-3-3-3-3---5-5-5-5-5-5-5-5-5-5-5-5-5-5---o|
E|----------------------------------------------------------------------|

G|----------------------------------------------------------------------|
D|----------------------------------------------------------------------|
A|---3---3-3-3-3-3-3-----------------------------------------------1----|
E|-------------------3---3-3-3-3-3-3-5---5-5-5-5-5-5-5-5-5-5-5-5-5------|

Chorus
G|----------------------------------------------------------------------|
D|----------------------------------------------------------------------|
A|---2---2-2-2-2-2-2-----------------5---5-5-5-5-5-5-5-5-5-5-5-5-5-5----|
E|-------------------3---3-3-3-3-3-3------------------------------------|

G|----------------------------------------------------------------------|
D|----------------------------------------------------------------------|
A|---2---2-2-2-2-2-2-----------------5---5-5-5-5-5-5-5---5---3---1------|
E|-------------------3---3-3-3-3-3-3------------------------------------|

G|----------------------------------------------------------------------|
D|----------------------------------------------------------------------|
A|---2---2-2-2-2-2-2-----------------5---5-5-5-5-5-5--------------------|
E|-------------------3---3-3-3-3-3-3-----------------5---5-5-5-5-5-5----|

G|----------------------------------------------------------------------|
D|----------------------------------------------------------------------|
A|---3---3-3-3-3-3-3----------------------------------------------------|
E|-------------------3---3-3-3-3-3-3------------------------------------|

Bridge
G|----------------------------------------------------------------------|
D|----------------------------------------------------------------------|
A|-----------------------------------------------3-5--------------------|
E|---5---5-5-3-3-5-------------------5-5-3-3-5-------3\----5-5-3-3-5----|

G|--------------------------|
D|--------------------------|
A|--------------------------|
E|---5-5-5-5/17-17-17-17----|

Guitar Solo
G|----------------------------------------------------------------------|
D|----------------------------------------------------------------------|
A|---2---2-2-2-2-2-2-----------------5---5-5-5-5-5-5-5-5-5-5-5-5-5-5----|
E|-------------------3---3-3-3-3-3-3------------------------------------|

G|----------------------------------------------------------------------|
D|----------------------------------------------------------------------|
A|---2---2-2-2-2-2-2-----------------5---5-5-5-5-5-5-5---5---3---1------|
E|-------------------3---3-3-3-3-3-3------------------------------------|

Chorus
G|----------------------------------------------------------------------|
D|----------------------------------------------------------------------|
A|---2---2-2-2-2-2-2-----------------5---5-5-5-5-5-5--------------------|
E|-------------------3---3-3-3-3-3-3-----------------5---5-5-5-5-5-5----|

G|--------------------------------------|
D|--------------------------------------|
A|---3---3-3-3-3-3-3--------------------|
E|-------------------3---3-3-3-3-3-3----|

Outro
G|----------------------------------------------------------------------|
D|o---------------------------------------------------------------------|
A|o--5---5-5-5-5-5-5-5-5-5-5-5-5-5-5-3---3-3-3-3-3-3--------------------|
E|---------------------------------------------------3---3-3-3-3-3-3----|

                                                       Repeat until fade
G|----------------------------------------------------------------------|
D|---------------------------9-----------------------------------------o|
A|---5---5-5-5-5-5-5-5-5-7-------7---3---3-3-3-3-3-3-------------------o|
E|---------------------------------------------------3---3-3-3-3-3-3----|



------------------------------------------------------------------------------
                    The Kids Ain't Alright
------------------------------------------------------------------------------


Verse 1 - Piano

Chorus(0:40)
Gb|----------------------------------------------------------------------|
Db|----------------------------------------------------------------------|
Ab|---3-3-3-3-3-3-3-3-3-3-3-3-5-5-7-7------------------------------------|
Eb|-----------------------------------5-5-5-5-5-5-5-5-5-5-5-5-5-5-5-X----|

Gb|----------------------------------------------------------------------|
Db|----------------------------------------------------------------------|
Ab|---5-5-5-5-5-5-5-5-5-5-5-5-7-7-9-9---------------------2-2-3-3-5-5----|
Eb|-----------------------------------3-3-3-3-3-3-3-3-3-3----------------|

Gb|----------------------------------------------------------------------|
Db|----------------------------------------------------------------------|
Ab|---3-3-3-3-3-3-3-3-3-3-3-3-5-5-7-7---------------------3-3-5-5-7-7----|
Eb|-----------------------------------5-5-5-5-5-5-5-5-5-5----------------|

Gb|----------------------------------------------------------------------|
Db|----------------------------------------------------------------------|
Ab|---5-5-5-5-5-5-5-5-5-5-5-5-7-7-9-9------------------------------------|
Eb|-----------------------------------3-3-3-3-3-3-3-3-3-3-3-3-3-3-5-5----|

Gb|--------------------------------------|
Db|--------------------------------------|
Ab|---3-3-3-3-3-3-3-3-3-3-3-3-3-3-3-3----|
Eb|--------------------------------------|

Verse 2
Gb|----------------------------------------------------------------------|
Db|----------------------------------------------------------------------|
Ab|-----------------------------------5-5-5-5-5-5-5-5-5-5-5-5-7-7-9-9----|
Eb|---5-5-5-5-5-5-5-5-5-5-5-5-7-7-9-9------------------------------------|

Gb|----------------------------------------------------------------------|
Db|----------------------------------------------------------------------|
Ab|-----------------------2-2-3-3-5-5-3-3-3-3-5-5-7-7--------------------|
Eb|---3-3-3-3-3-3-3-3-3-3-----------------------------0-0-0-0-2-2-3-3----|

Gb|----------------------------------------------------------------------|
Db|----------------------------------------------------------------------|
Ab|-----------------------------------5-5-5-5-5-5-5-5-5-5-5-5-7-7-9-9----|
Eb|---5-5-5-5-5-5-5-5-5-5-5-5-7-7-9-9------------------------------------|

Gb|----------------------------------------------------------------------|
Db|----------------------------------------------------------------------|
Ab|-----------------------2-2-3-3------------------/8-8-8-8-8-8-8-8-8----|
Eb|---3-3-3-3-3-3-3-3-3-3-----------1-1-1-1-1-1-1-1----------------------|

Chorus
Gb|----------------------------------------------------------------------|
Db|----------------------------------------------------------------------|
Ab|---3-3-3-3-3-3-3-3-3-3-3-3-5-5-7-7------------------------------------|
Eb|-----------------------------------5-5-5-5-5-5-5-5-5-5-5-5-5-5-5-X----|

Gb|----------------------------------------------------------------------|
Db|----------------------------------------------------------------------|
Ab|---5-5-5-5-5-5-5-5-5-5-5-5-7-7-9-9---------------------2-2-3-3-5-5----|
Eb|-----------------------------------3-3-3-3-3-3-3-3-3-3----------------|

Gb|----------------------------------------------------------------------|
Db|----------------------------------------------------------------------|
Ab|---3-3-3-3-3-3-3-3-3-3-3-3-5-5-7-7---------------------3-3-5-5-7-7----|
Eb|-----------------------------------5-5-5-5-5-5-5-5-5-5----------------|

Gb|----------------------------------------------------------------------|
Db|----------------------------------------------------------------------|
Ab|---5-5-5-5-5-5-5-5-5-5-5-5-7-7-9-9------------------------------------|
Eb|-----------------------------------3-3-3-3-3-3-3-3-3-3-3-3-3-3-5-5----|

Gb|--------------------------------------|
Db|--------------------------------------|
Ab|---3---------------3------------------|
Eb|-----------3---1-----------3---1------|

Bridge
Gb|----------------------------------------------------------------------|
Db|o-------------------------2-3------------------------2---------------o|
Ab|o-----------2-3--5--5-5-5-----------------2--3---3-5-----------------o|
Eb|---5--5-5-5--------------------3--3-3-3-5--------------0---0-2-3-5----|

Chorus
Gb|----------------------------------------------------------------------|
Db|----------------------------------------------------------------------|
Ab|---3-3-3-3-3-3-3-3-3-3-3-3-5-5-7-7------------------------------------|
Eb|-----------------------------------5-5-5-5-5-5-5-5-5-5-5-5-5-5-5-X----|

Gb|----------------------------------------------------------------------|
Db|----------------------------------------------------------------------|
Ab|---5-5-5-5-5-5-5-5-5-5-5-5-7-7-9-9---------------------2-2-3-3-5-5----|
Eb|-----------------------------------3-3-3-3-3-3-3-3-3-3----------------|

Gb|----------------------------------------------------------------------|
Db|----------------------------------------------------------------------|
Ab|---3-3-3-3-3-3-3-3-3-3-3-3-5-5-7-7---------------------3-3-5-5-7-7----|
Eb|-----------------------------------5-5-5-5-5-5-5-5-5-5----------------|

Gb|----------------------------------------------------------------------|
Db|----------------------------------------------------------------------|
Ab|---5-5-5-5-5-5-5-5-5-5-5-5-7-7-9-9------------------------------------|
Eb|-----------------------------------3-3-3-3-3-3-3-3-3-3-3-3-3-3-5-5----|

Gb|----------------------------------------------------------------------|
Db|----------------------------------------------------------------------|
Ab|---3---------------3---------------3---------------3------------------|
Eb|-----------3---1-----------3---1-----------3---1-----------3---1------|

Outro - Piano



------------------------------------------------------------------------------
              Low Lives in Hi-Definition
------------------------------------------------------------------------------


Intro (0:07)
Gb|----------------------------------------------------------------------|
Db|----------------------------------------------------------------------|
Ab|---5---------------5---------------5---------------5------------------|
Eb|-------5-3---0---3-----5-3---0---3-----5-3---0---3-----5-3---0---3----|

Verse
Gb|----------------------------------------------------------------------|
Db|o--------------------------------------------------------------------o|
Ab|o--7-7-7-7-7-7-7-7-7-7-7-7-7-7-7-7-7-7-7-7-7-7-7-7-7-7-7-7-7-7-7-5---o|
Eb|----------------------------------------------------------------------|

Gb|------------------------|
Db|------------------------|
Ab|-------5-------5--------|
Eb|---5-------5-----5-3----|

Chorus
Gb|----------------------------------------------------------------------|
Db|----------------------------------------------------------------------|
Ab|-----------------------------------5-5-5-5-5-5-5-5-5-5-5-5-5-5-5-5----|
Eb|---0-0-0-0-0-0-0-0-0-0-0-0-0-0-0-0------------------------------------|

Gb|----------------------------------------------------------------------|
Db|----------------------------------------------------------------------|
Ab|-------------------5-5-5-5-5-5-5-5---------------------------5--------|
Eb|---5-5-5-5-5-5-5-5-----------------0-0-0-0-0-0-0-0-0-0-0-0-0---5-3----|

Gb|----------------------------------------------------------------------|
Db|----------------------------------------------------------------------|
Ab|-----------------------------------5-5-5-5-5-5-5-5-5-5-5-5-5-5-5-5----|
Eb|---0-0-0-0-0-0-0-0-0-0-0-0-0-0-0-0------------------------------------|

Gb|----------------------------------------------------------------------|
Db|----------------------------------------------------------------------|
Ab|-------------------5-5-5-5-5-5-5-5------------------------------------|
Eb|---5-5-5-5-5-5-5-5-----------------0-0-0-0-0-0-0-0-0-0-0-0-0-0-0-0----|

Gb|----------------------------------------------------------------------|
Db|----------------------------------------------------------------------|
Ab|---5---------------5---------------5---------------5------------------|
Eb|-------5-3---0---3-----5-3---0---3-----5-3---0---3-----5-3---0---3----|

Verse
Gb|----------------------------------------------------------------------|
Db|o--------------------------------------------------------------------o|
Ab|o--7-7-7-7-7-7-7-7-7-7-7-7-7-7-7-7-7-7-7-7-7-7-7-7-7-7-7-7-7-7-7-5---o|
Eb|----------------------------------------------------------------------|

Gb|------------------------|
Db|------------------------|
Ab|-------5-------5--------|
Eb|---5-------5-----5-3----|

Chorus
Gb|----------------------------------------------------------------------|
Db|----------------------------------------------------------------------|
Ab|-----------------------------------5-5-5-5-5-5-5-5-5-5-5-5-5-5-5-5----|
Eb|---0-0-0-0-0-0-0-0-0-0-0-0-0-0-0-0------------------------------------|

Gb|----------------------------------------------------------------------|
Db|----------------------------------------------------------------------|
Ab|-------------------5-5-5-5-5-5-5-5---------------------------5--------|
Eb|---5-5-5-5-5-5-5-5-----------------0-0-0-0-0-0-0-0-0-0-0-0-0---5-3----|

Gb|----------------------------------------------------------------------|
Db|----------------------------------------------------------------------|
Ab|-----------------------------------5-5-5-5-5-5-5-5-5-5-5-5-5-5-5-5----|
Eb|---0-0-0-0-0-0-0-0-0-0-0-0-0-0-0-0------------------------------------|

Gb|----------------------------------------------------------------------|
Db|----------------------------------------------------------------------|
Ab|-------------------5-5-5-5-5-5-5-5------------------------------------|
Eb|---5-5-5-5-5-5-5-5-----------------0-0-0-0-0-0-0-0-0-0-0-0-0-0-0-0----|

Gb|----------------------------------------------------------------------|
Db|----------------------------------------------------------------------|
Ab|---5---------------5---------------5---------------5------------------|
Eb|-------5-3---0---3-----5-3---0---3-----5-3---0---3-----5-3---0---3----|

Guitar Solo (no bass)
Gb|----------------------------------------------------------------------|
Db|----------------------------------------------------------------------|
Ab|----------------------------------------------------------------------|
Eb|----------------------------------------------------------------------|

Gb|----------------------------------------------------------------------|
Db|----------------------------------------------------------------------|
Ab|-----------------------------------3-3-3-3-3-3-3-3-3-3-3-3-3-3-3-3----|
Eb|---0~-----------------------------------------------------------------|

Gb|----------------------------------------------------------------------|
Db|----------------------------------------------------------------------|
Ab|---5-5-5-5-5-5-5-5-5-5-5-5-5-5-5-5------------------------------------|
Eb|-----------------------------------0-0-0-0-0-0-0-0-0-0-0-0-5-7-5-3----|

Gb|----------------------------------------------------------------------|
Db|----------------------------------------------------------------------|
Ab|---------------------------------2-3-3-3-3-3-3-3-3-3-3-3-3-3-3-3-3----|
Eb|---0-0-0-0-0-0-0-0-0-0-0-0-0-3-5--------------------------------------|

Gb|--------------------------------------|
Db|--------------------------------------|
Ab|---5-5-5-5-5-5-5-5-5-5-5-5-5-5-5-5----|
Eb|--------------------------------------|

Chorus
Gb|----------------------------------------------------------------------|
Db|o---------------------------------------------------------------------|
Ab|o----------------------------------5-5-5-5-5-5-5-5-5-5-5-5-5-5-5-5----|
Eb|---0-0-0-0-0-0-0-0-0-0-0-0-0-0-0-0------------------------------------|

Gb|----------------------------------------------------------------------|
Db|---------------------------------------------------------------------o|
Ab|-------------------5-5-5-5-5-5-5-5---------------------------5-------o|
Eb|---5-5-5-5-5-5-5-5-----------------0-0-0-0-0-0-0-0-0-0-0-0-0---5-3----|

Gb|----------------------------------------------------------------------|
Db|----------------------------------------------------------------------|
Ab|---5---------------5---------------5---------------5------------------|
Eb|-------5-3---0---3-----5-3---0---3-----5-3---0---3-----5-3---0--------|



------------------------------------------------------------------------------
                        Time To Bleed
------------------------------------------------------------------------------


Intro
Gb|----------------------------------------------------------------------|
Db|----------------------------------------------------------------------|
Ab|-------------------------------3-------------------------------3------|
Eb|---5-5-5-5-5-5-3-3-5-5-5-5-535---3-5-5-5-5-5-5-3-3-5-5-5-5-535---3----|

Verse
Gb|----------------------------------------------------------------------|
Db|o----------------------------------3-3-3-3-3-3-3-3-3-3-3-3-3-3-2-2----|
Ab|o------------------------------3-3------------------------------------|
Eb|---5-5-5-5-5-5-5-5-5-5-5-5-5-5----------------------------------------|

Gb|----------------------------------------------------------------------|
Db|---------------------------------------------------------------------o|
Ab|---5-5-5-5-5-5-7-7-------------2-3-5-5-5-5-5-5-7-7-------------------o|
Eb|-------------------3-3-3-3-3-3---------------------3-3-3-3-3-3-5-7----|

Chorus
Gb|----------------------------------------------------------------------|
Db|----------------------------------------------------------------------|
Ab|-------------------3-3-3-3-3-3-3-3------------------------------------|
Eb|---1-1-1-1-1-1-1-1-----------------5-5-5-5-5-5-5-5-3-3-3-3-3-3-3-3----|

Gb|----------------------------------------------------------------------|
Db|----------------------------------------------------------------------|
Ab|-------------------5-5-5-5-5-5-5-5-----------------------------3------|
Eb|---1-1-1-1-1-1-1-1-----------------5-5-5-5-5-5-3-3-5-5-5-5-535---3----|

Verse
Gb|----------------------------------------------------------------------|
Db|-----------------------------------3-3-3-3-3-3-3-3-3-3-3-3-3-3-2-2----|
Ab|-------------------------------3-3------------------------------------|
Eb|---5-5-5-5-5-5-5-5-5-5-5-5-5-5----------------------------------------|

Gb|----------------------------------------------------------------------|
Db|----------------------------------------------------------------------|
Ab|---5-5-5-5-5-5-7-7-------------2-3-5-5-5-5-5-5-7-7--------------------|
Eb|-------------------3-3-3-3-3-3---------------------3-3-3-3-3-3-5-7----|

Gb|----------------------------------------------------------------------|
Db|----------------------------------------------------------------------|
Ab|----------------------------------------------------------------------|
Eb|---5-5-5-5-5-5-5-5-5-5-5-5-5-5-3-3-1-1-1-1-1-1-1-1-1-1-1-1-1-1-0-0----|

Gb|----------------------------------------------------------------------|
Db|----------------------------------------------------------------------|
Ab|---5-5-5-5-5-5-7-7-------------2-3-5-5-5-5-5-5-7-7--------------------|
Eb|-------------------3-3-3-3-3-3---------------------3-3-3-3-3-3-5-7----|

Chorus
Gb|----------------------------------------------------------------------|
Db|----------------------------------------------------------------------|
Ab|-------------------3-3-3-3-3-3-3-3------------------------------------|
Eb|---1-1-1-1-1-1-1-1-----------------5-5-5-5-5-5-5-5-3-3-3-3-3-3-3-3----|

Gb|----------------------------------------------------------------------|
Db|----------------------------------------------------------------------|
Ab|-------------------5-5-5-5-5-5-5-5------------------------------------|
Eb|---1-1-1-1-1-1-1-1-----------------5-5-5-5-5-5-3-3-5-5-5-5-5-5-3-3----|

Gb|----------------------------------------------------------------------|
Db|----------------------------------------------------------------------|
Ab|---5---5---5---5-7-8---8---8---8-7\-----------------------------------|
Eb|-----------------------------------5---5---5---5-7-3---3---3---5-7----|

Gb|----------------------------------------------------------------------|
Db|----------------------------------------------------------------------|
Ab|---5---5---5---5-7-8---8---8---8-7\-----------------------------------|
Eb|-----------------------------------5---5---5---5-4-3-3-3-3-3-3-3-3----|

Gb|---------------------------------|
Db|---------------------------------|
Ab|---------------------------------|
Eb|---15-15-15-15-15-15-15-15-13----|

(2:19) No Bass
Gb|----------------------------------------------------------------------|
Db|----------------------------------------------------------------------|
Ab|----------------------------------------------------------------------|
Eb|----------------------------------------------------------------------|

(2:40)
Gb|----------------------------------------------------------------------|
Db|---------------------------------------------------------------2-3----|
Ab|---3-3-3-3-333-33--3-3-3-3-333-33--3-3-3-3-333-33--3-3-3-3-3-5--------|
Eb|----------------------------------------------------------------------|

Gb|------------------------------------------------------------------------|
Db|------------------------------------------------------------------------|
Ab|-------------------3-3-3-3-333-33---------------------------------------|
Eb|---1-1-1-1-111-11------------------5-5-5-5-555-55--3-3-3-3-333-33-15\---|

Chorus
Gb|----------------------------------------------------------------------|
Db|o--------------------------------------------------------------------o|
Ab|o------------------3-3-3-3-3-3-3-3-----------------------------------o|
Eb|---1-1-1-1-1-1-1-1-----------------5-5-5-5-5-5-5-5-3-3-3-3-3-3-3-3----|

Gb|----------------------------------------------------------------------|
Db|----------------------------------------------------------------------|
Ab|-------------------5-5-5-5-5-5-5-5-----------------------------3------|
Eb|---1-1-1-1-1-1-1-1-----------------5-5-5-5-5-5-3-3-5-5-5-5-535---3----|

Gb|-------------------------|
Db|-------------------------|
Ab|-------------------------|
Eb|---5-5-5-5-5-5-3-3-5\----|



------------------------------------------------------------------------------
                     Loose From The Noose
------------------------------------------------------------------------------


Intro
Gb|-------------------------------------------------------------------------|
Db|-------------------------------------------------------------------------|
Ab|---9\-4-4-2-4-4-4-4-4---------------------------------2-------2---2------|
Eb|----------------------5-5-4-5-5-5-5-5-2-2-0-2-2-2-2-2-----0--------------|

Gb|----------------------------------------------------------------------|
Db|----------------------------------------------------------------------|
Ab|---4-4-2-4-4-4-4-4-----------------------------------------2---2------|
Eb|-------------------5-5-4-5-5-5-5-5-2-2-0-2-2-2-2-2/7---0--------------|

Verse
Gb|----------------------------------------------------------------------|
Db|----------------------------------------------------------------------|
Ab|---4-4-4-4-4-4-4-4---------------------------------2-2-2-2-----2-4----|
Eb|-------------------5-5-5-5-5-5-5-5-2-2-2-2-2-2-2-2---------2-4--------|

Gb|------------------------------------------------------------------------|
Db|------------------------------------------------------------------------|
Ab|---4-4-4-4-4-4-4-4------------------------------------------------------|
Eb|-------------------5-5-5-5-5-5-5-5-2-2-2-2-2-2-2-2-7-7-7-7-7-7-7-7-7\---|

Chorus
Gb|----------------------------------------------------------------------|
Db|----------------------------------------------------------------------|
Ab|---4-4-4-4-4-4-6-4---------------------------------2-2-2-2-2-2-2-2----|
Eb|-------------------5-5-5-5-5-5-5-5-2-2-2-2-2-2-2-2--------------------|

Gb|-----------6-4--------------------------------------------------------|
Db|---------------6-4-----------------------------------------4-2--------|
Ab|---4-4-4-4-----------------------------------------2-2-2-2-----4-2----|
Eb|-------------------5-5-5-5-5-5-5-5-2-2-2-2-2-2-2-2--------------------|

Gb|----------------------------------------------------------------------|
Db|----------------------------------------------------------------------|
Ab|---4-4-2-4-4-4-4-4-----------------------------------------2---2------|
Eb|-------------------5-5-4-5-5-5-5-5-2-2-0-2-2-2-2-2/7---0--------------|

Verse
Gb|----------------------------------------------------------------------|
Db|-----------------------------------4-4-4-4-4-4-4-4---------------2----|
Ab|---4-4-4-4-4-4-4-4---------------------------------2-2-2-2-2-2-4------|
Eb|-------------------5-5-5-5-5-5-5-5------------------------------------|

Gb|------------------------------------------------------------------------|
Db|------------------------------------------------------------------------|
Ab|---4-4-4-4-4-4-4-4-----------------9-9-9-9-9-9-9-9----------------------|
Eb|-------------------5-5-5-5-5-5-5-5-----------------7-7-7-7-7-7-7-7-7\---|

Chorus
Gb|----------------------------------------------------------------------|
Db|----------------------------------------------------------------------|
Ab|---4-4-4-4-4-4-6-4---------------------------------2-2-2-2-2-2-2-2----|
Eb|-------------------5-5-5-5-5-5-5-5-2-2-2-2-2-2-2-2--------------------|

Gb|-----------6-4--------------------------------------------------------|
Db|---------------6-4-----------------------------------------4-2--------|
Ab|---4-4-4-4-----------------------------------------2-2-2-2-----4-2----|
Eb|-------------------5-5-5-5-5-5-5-5-2-2-2-2-2-2-2-2--------------------|

Guitar solo
Gb|----------------------------------------------------------------------|
Db|----------------------------------------------------------------------|
Ab|---4-4-2-4-4-4-4-4---------------------------------2-------2---2------|
Eb|-------------------5-5-4-5-5-5-5-5-2-2-0-2-2-2-2-2-----0--------------|

Gb|--------------------------------------------------------------------|
Db|--------------------------------------------------------------------|
Ab|---4-4-2-4-4-4-4-4-----------------------------------------2---2----|
Eb|-------------------5-5-4-5-5-5-5-5-2-2-0-2-2-2-2-2/7---0------------|

Bridge
Gb|----------------------------------------------------------------------|
Db|----------------------------------------------------------------------|
Ab|-----------------------------------4~--------------2------------------|
Eb|---5~--------------2~--------------------------------------4----------|

Gb|----------------------------------------------------------------------|
Db|----------------------------------------------------------------------|
Ab|-----------------------------------4---4---4---4---2---2---2---2------|
Eb|---5~--------------2~-------------------------------------------------|

Gb|----------------------------------------------------------------------|
Db|----------------------------------------------------------------------|
Ab|---1---1---1---1---0---0---2---2---4---4---4---4---2---2---2---2------|
Eb|----------------------------------------------------------------------|

Gb|----------------------------------------------------------------------|
Db|----------------------------------------------------------------------|
Ab|---1---1---1---1---0---0---2---2---4-4-4-4-4-4-6-4-2-2-2-2-2-2-4-2----|
Eb|----------------------------------------------------------------------|

Gb|----------------------------------------------------------------------|
Db|----------------------------------------------------------------------|
Ab|---1-1-1-1-1-1-2-1-0-0-0-0-2-2-2-2-4-4-4-4-4-4-6-4-2-2-2-2-2-2-4-2----|
Eb|----------------------------------------------------------------------|

Gb|----------------------------------------------------------------------|
Db|----------------------------------------------------------------------|
Ab|---1-1-1-1-1-1-2-1-0-0-0-0-2-2-2-2-------------------------------9\---|
Eb|----------------------------------------------------------------------|

Chorus
Gb|----------------------------------------------------------------------|
Db|----------------------------------------------------------------------|
Ab|---4-4-4-4-4-4-6-4---------------------------------2-2-2-2-2-2-2-2----|
Eb|-------------------5-5-5-5-5-5-5-5-2-2-2-2-2-2-2-2--------------------|

Gb|-----------6-4--------------------------------------------------------|
Db|---------------6-4-----------------------------------------4-2--------|
Ab|---4-4-4-4-----------------------------------------2-2-2-2-----4-2----|
Eb|-------------------5-5-5-5-5-5-5-5-2-2-2-2-2-2-2-2--------------------|

Gb|----------------------------------------------------------------------|
Db|----------------------------------------------------------------------|
Ab|---4-4-2-4-4-4-4-4-----------------------------------------2---2------|
Eb|-------------------5-5-4-5-5-5-5-5-2-2-0-2-2-2-2-2/7---0--------------|

Gb|--------------|
Db|--------------|
Ab|---4-4-2-4----|
Eb|--------------|



------------------------------------------------------------------------------
                         Space Age Wasteland
------------------------------------------------------------------------------


Intro
Gb|---------------------------------------------------------------------------|
Db|---------------------------------------------------------------------------|
Ab|--2--2-2--2-2--2-2--5--5-5--5-5--5-5--------------------------5---5--------|
Eb|--------------------------------------2--2-2--2-2--2-2--5--5---------5-----|

Gb|---------------------------------------------------------------------------|
Db|---------------------------------------------------------------------------|
Ab|--2--2-2--2-2--2-2--5--5-5--5-5--5-5--------------------------5---5--------|
Eb|--------------------------------------2--2-2--2-2--2-2--5--5---------5-----|

Verse                                                                Repeat x3
Gb|---------------------------------------------------------------------------|
Db|o-------------------------------------------------------------------------o|
Ab|o----------------2--5\----------------------------------------5---5-------o|
Eb|--7\-------------------------------5--2--------------2--5--5---------5-----|

Gb|---------------------------------------------------------------------------|
Db|---------------------------------------------------------------------------|
Ab|-----------------2--5\-----------------------------------------------------|
Eb|--7\-------------------------------5--2--2-2--2-2--2-2--5-5-5-5-5-5-5------|

Chorus
Gb|---------------------------------------------------------------------------|
Db|---------------------------------------------------------------------------|
Ab|--------------------5--5-5--5-5--5-5---------------------------------------|
Eb|--2--3-3--3-3--3-3--------------------5--5-5--5-5--5-5--5--5-5--5-5--5-5---|

Gb|---------------------------------------------------------------------------|
Db|---------------------------------------------------------------------------|
Ab|--------------------5--5-5--5-5--5-5---------------------------------------|
Eb|--3--3-3--3-3--3-3--------------------5--5-5--5-5--5-5--5-5-5-5-5-5-5------|

Gb|---------------------------------------------------------------------------|
Db|---------------------------------------------------------------------------|
Ab|--------------------5--5-4----2----4---------------------------------------|
Eb|--2--3-3--3-3--3-3--------------------5--5-5--5-5--5-7--0--0-0--0-0--0-0---|

Gb|--------------------------------------|
Db|--------------------------------------|
Ab|--------------------------------------|
Eb|--3-3-3-3-3-3-3-3-2-------------------|

Gb|---------------------------------------------------------------------------|
Db|---------------------------------------------------------------------------|
Ab|--2--2-2--2-2--2-2--5--5-5--5-5--5-5--------------------------5---5--------|
Eb|--------------------------------------2--2-2--2-2--2-2--5--5---------5-----|

Verse                                                                Repeat x3
Gb|---------------------------------------------------------------------------|
Db|o-------------------------------------------------------------------------o|
Ab|o----------------2--5\----------------------------------------5---5-------o|
Eb|---7\------------------------------5--2--------------2--5--5---------5-----|

Gb|---------------------------------------------------------------------------|
Db|---------------------------------------------------------------------------|
Ab|-----------------2--5\-----------------------------------------------------|
Eb|---7\------------------------------5--2--2-2--2-2--2-2--5-5-5-5-5-5-5------|

Chorus
Gb|---------------------------------------------------------------------------|
Db|---------------------------------------------------------------------------|
Ab|--------------------5--5-5--5-5--5-5---------------------------------------|
Eb|--2--3-3--3-3--3-3--------------------5--5-5--5-5--5-5--5--5-5--5-5--5-5---|

Gb|---------------------------------------------------------------------------|
Db|---------------------------------------------------------------------------|
Ab|--------------------5--5-5--5-5--5-5---------------------------------------|
Eb|--3--3-3--3-3--3-3--------------------5--5-5--5-5--5-5--5-5-5-5-5-5-5------|

Gb|---------------------------------------------------------------------------|
Db|---------------------------------------------------------------------------|
Ab|--------------------5--5-4----2----4---------------------------------------|
Eb|--2--3-3--3-3--3-3--------------------5--5-5--5-5--5-7--0--0-0--0-0--0-0---|

Gb|---------------------------------------------------------------------------|
Db|---------------------------------------------------------------------------|
Ab|---------------------------------------------------------------------------|
Eb|--3--3-3--3-3--3-3--2-2-2-2-2-5-5-5-5-5-7--7-5-7--7-5-7-5-7-5-7-5\---------|

Bridge
Gb|----------------------------------------------------------------|
Db|--9-9-9-9-9-9-9-9-9-9-9-9-9-9-9-9--9-7----7---------------------|
Ab|---------------------------------------9----9-7--9-7-6--7-6-----|
Eb|------------------------------------------------------------7---|

Guitar solo
Gb|---------------------------------------------------------------------------|
Db|---------------------------------------------------------------------------|
Ab|--------------------5--5-5--5-5--5-5--------------------------5---5--------|
Eb|--7--7-7--7-7--7-7--------------------2--2-2--2-2--2-2--5--5---------5-----|

Gb|---------------------------------------------------------------------------|
Db|---------------------------------------------------------------------------|
Ab|--2--2-2--2-2--2-2--5--5-5--5-5--5-5---------------------------------------|
Eb|--------------------------------------2--2-2--2-2--2-4--5--5-5--5-5--------|

Gb|---------------------------------------------------------------------------|
Db|---------------------------------------------------------------------------|
Ab|--------------------5--5-5--5-5--5-5---------------------------------------|
Eb|--2--3-3--3-3--3-3--------------------5--5-5--5-5--5-5--0--0-0--0-0--0-0---|

Gb|---------------------------------------------------------------------------|
Db|---------------------------------------------------------------------------|
Ab|--------------------5--5-5--5-5--5-5---------------------------------------|
Eb|--3--3-3--3-3--3-3--------------------5--5-5--5-5--5-5--5-5-5-5-5-5-5------|

Chorus
Gb|---------------------------------------------------------------------------|
Db|---------------------------------------------------------------------------|
Ab|--------------------5--5-5--5-5--5-5---------------------------------------|
Eb|--2--3-3--3-3--3-3--------------------5--5-5--5-5--5-5--5--5-5--5-5--5-5---|

Gb|---------------------------------------------------------------------------|
Db|---------------------------------------------------------------------------|
Ab|--------------------5--5-5--5-5--5-5---------------------------------------|
Eb|--3--3-3--3-3--3-3--------------------5--5-5--5-5--5-5--5-5-5-5-5-5-5------|

Gb|---------------------------------------------------------------------------|
Db|---------------------------------------------------------------------------|
Ab|--------------------5--5-4----2----4---------------------------------------|
Eb|--2--3-3--3-3--3-3--------------------5--5-5--5-5--5-7--0--0-0--0-0--0-0---|

Gb|---------------------------------------------------------------------------|
Db|---------------------------------------------------------------------------|
Ab|---------------------------------------------------------------------------|
Eb|--3--3-3--3-3--3-3--2-2-2-2-2-5-5-5-5-5-7--7-5-7--7-5-7-5-7-5-7-5\---------|


Добавлено: 25.05.2016
Другие материалы по этой песне:
  • Аккорды и текст

Страница создана 25.05.2016
http://primanota.ru/biters/electric-blood-album-chords.htm
Привет, Гость.
Предлагаем пройти революционный курс по гитаре.
Подарок от PrimaNota.Ru, забирай!