PrimaNota.ru - самый крупный в мире бесплатный архив песенных текстов, аккордов, табулатур и нот


Bitch Alert - Totally Out There - таба, видео

Регистрация Запомнить меня
Войти через:  Facebook Google Twitter Vk Yandex Mail.ru

Bitch Alert - Totally Out There - таба, видео

Печатать
Просмотров: 81
.-------------------------------------------.
| Artist        : Bitch Alert               |
| Album         : I Can Feel Your Bones     |
| Track         : Totally Out There         |
|-------------------------------------------|
| Tabbed by     : Ricky Thomson             |
| Date          : Thu 29th April 2012       |
| Contact Email : punkalert@gmail.com       |
'-------------------------------------------'

Tuning: standard

This arrangement is for one guitar, the track appears to have 2 guitars
playing throughout most of the song, but it sounds decent enough, i don't
think there is anything wrong with it =P


Order:
 - intro riff
 - verse
 - bridge one
 - chorus
 - verse
 - bridge one
 - chorus
 - bridge two
 - outro
 

[intro riff]

e|----------------------------------------------------------------------|
B|----------------------------------------------------------------------|
G|----------------------------------------------------------------------|
D|----------------------------------------------------------------------|
A|--7--7-7-7--9-9-9--6--6-6-6--7-7-7--7--7-7-7--9-9-9--6--6-6-6--7-7-7--|
E|--0--0-0-0--0-0-0--0--0-0-0--0-0-0--0--0-0-0--0-0-0--0--0-0-0--0-0-0--|



[verse]

e|--------------------------------------------------------------------------|
B|--------------------------------------------------------------------------|
G|--6-6-6--9-9-9-9--6-6-6--13-13-13-13--6-6-6--9-9-9-9--6-6-6--13-13-13-13--|
D|--x-x-x--x-x-x-x--x-x-x---x--x--x--x--x-x-x--x-x-x-x--x-x-x---x--x--x--x--|
A|--4-4-4--7-7-7-7--4-4-4--11-11-11-11--4-4-4--7-7-7-7--4-4-4--11-11-11-11--|
E|--0-0-0--0-0-0-0--0-0-0---0--0--0--0--0-0-0--0-0-0-0--0-0-0---0--0--0--0--|

e|--------------------------------------------------------------------------|
B|--------------------------------------------------------------------------|
G|--6-6-6--9-9-9-9--6-6-6--13-13-13-13--6-6-6--9-9-9-9--6-6-6--13-13-13-13--|
D|--x-x-x--x-x-x-x--x-x-x---x--x--x--x--x-x-x--x-x-x-x--x-x-x---x--x--x--x--|
A|--4-4-4--7-7-7-7--4-4-4--11-11-11-11--4-4-4--7-7-7-7--4-4-4--11-11-11-11--|
E|--0-0-0--0-0-0-0--0-0-0---0--0--0--0--0-0-0--0-0-0-0--0-0-0---0--0--0--0--|

e|-------------------------|
B|-------------------------|
G|--9--9--9--9-9--9-9-999--|
D|--x--x--x--x-x--x-x-xxx--|
A|--7--7--7--7-7--7-7-777--|
E|--0--0--0--0-0--0-0-000--|

e|------------------------------------------------------------------|
B|------------------------------------------------------------------|
G|--9--9-9-9---11-11-11---8--8-8-8---9-9-9---9--9--9--9-9--9-9-999--|
D|--x--x-x-x----x--x--x---x--x-x-x---x-x-x---x--x--x--x-x--x-x-xxx--|
A|--7--7-7-7----9--9--9---6--6-6-6---7-7-7---7--7--7--7-7--7-7-777--|
E|--0--0-0-0----0--0--0---0--0-0-0---0-0-0---0--0--0--0-0--0-0-000--|

e|------------------------------------------------------------------|
B|------------------------------------------------------------------|
G|--9--9-9-9---11-11-11---8--8-8-8---9-9-9---4--4--4--4-4--4-4-444--|
D|--x--x-x-x----x--x--x---x--x-x-x---x-x-x---x--x--x--x-x--x-x-xxx--|
A|--7--7-7-7----9--9--9---6--6-6-6---7-7-7---2--2--2--2-2--2-2-222--|
E|--0--0-0-0----0--0--0---0--0-0-0---0-0-0---0--0--0--0-0--0-0-000--|

e|------------------------------------------------------------------|
B|------------------------------------------------------------------|
G|--4--4-4-4----6--6--6---4--4-4-4---6-6-6---9--9--9--9-9--9-9-999--|
D|--x--x-x-x----x--x--x---x--x-x-x---x-x-x---x--x--x--x-x--x-x-xxx--|
A|--2--2-2-2----4--4- 4---2--2-2-2---4-4-4---7--7--7--7-7--7-7-777--|
E|--0--0-0-0----0--0- 0---0--0-0-0---0-0-0---0--0--0--0-0--0-0-000--|

e|------------------------------------------|
B|------------------------------------------|
G|--9--9-9-9---11-11-11---8--8-8-8---9-9-9--|
D|--x--x-x-x----x--x--x---x--x-x-x---x-x-x--|
A|--7--7-7-7----9--9--9---6--6-6-6---7-7-7--|
E|--0--0-0-0----0--0--0---0--0-0-0---0-0-0--|



[bridge one]

e|------------------------------------------------------------------------------|
B|------------------------------------------------------------------------------|
G|--9--99999999999999--9--99999999999999--9--99999999999999--9--99999999999999--|
D|--9--99999999999999--9--99999999999999--9--99999999999999--9--99999999999999--|
A|--7--77777777777777--7--77777777777777--7--77777777777777--7--77777777777777--|
E|-----------------------------------------------------------0--00000000000000--|



[chorus]

e|------------------------------------------------------------------------------|
B|------------------------------------------------------------------------------|
G|--9-99-999999999999--7-77-777777777777--5-55-555555555555--4-44-444444444444--|
D|--9-99-999999999999--7-77-777777777777--5-55-555555555555--4-44-444444444444--|
A|--7-77-777777777777--5-55-555555555555--3-33-333333333333--2-22-222222222222--|
E|------------------------------------------------------------------------------|

e|------------------------------------------------------------------------------|
B|------------------------------------------------------------------------------|
G|------------------------------------------------------------------------------|
D|--7-77-777777777777--5-55-555555555555--4-44-444444444444--2-22-222222222222--|
A|--7-77-777777777777--5-55-555555555555--4-44-444444444444--2-22-222222222222--|
E|--5-55-555555555555--3-33-333333333333--2-22-222222222222--0-00-000000000000--|



[bridge two]

e|--------------------------------------------------------------------------|
B|--------------------------------------------------------------------------|
G|--6-6-6--9-9-9-9--6-6-6--13-13-13-13--6-6-6--9-9-9-9--6-6-6--13-13-13-13--|
D|--x-x-x--x-x-x-x--x-x-x---x--x--x--x--x-x-x--x-x-x-x--x-x-x---x--x--x--x--|
A|--4-4-4--7-7-7-7--4-4-4--11-11-11-11--4-4-4--7-7-7-7--4-4-4--11-11-11-11--|
E|--0-0-0--0-0-0-0--0-0-0---0--0--0--0--0-0-0--0-0-0-0--0-0-0---0--0--0--0--|

e|--------------------------------------------------------------------------|
B|--------------------------------------------------------------------------|
G|--6-6-6--9-9-9-9--6-6-6--13-13-13-13--6-6-6--9-9-9-9--6-6-6--13-13-13-13--|
D|--x-x-x--x-x-x-x--x-x-x---x--x--x--x--x-x-x--x-x-x-x--x-x-x---x--x--x--x--|
A|--4-4-4--7-7-7-7--4-4-4--11-11-11-11--4-4-4--7-7-7-7--4-4-4--11-11-11-11--|
E|--0-0-0--0-0-0-0--0-0-0---0--0--0--0--0-0-0--0-0-0-0--0-0-0---0--0--0--0--|

e|--------------------------------------------------------------|
B|--------------------------------------------------------------|
G|--9--99999999999999---9--9-9-9---11-11-11---8--8-8-8---9-9-9--|
D|--9--99999999999999---x--x-x-x----x--x--x---x--x-x-x---x-x-x--|
A|--7--77777777777777---7--7-7-7----9--9--9---6--6-6-6---7-7-7--|
E|----------------------0--0-0-0----0--0--0---0--0-0-0---0-0-0--|

e|--------------------------------------------------------------|
B|--------------------------------------------------------------|
G|--9--99999999999999---9--9-9-9---11-11-11---8--8-8-8---9-9-9--|
D|--9--99999999999999---x--x-x-x----x--x--x---x--x-x-x---x-x-x--|
A|--7--77777777777777---7--7-7-7----9--9--9---6--6-6-6---7-7-7--|
E|----------------------0--0-0-0----0--0--0---0--0-0-0---0-0-0--|



[outro]

e|------------------------------------------------------------------------------|
B|------------------------------------------------------------------------------|
G|--9-99-999999999999--7-77-777777777777--5-55-555555555555--4-44-444444444444--|
D|--9-99-999999999999--7-77-777777777777--5-55-555555555555--4-44-444444444444--|
A|--7-77-777777777777--5-55-555555555555--3-33-333333333333--2-22-222222222222--|
E|------------------------------------------------------------------------------|

e|------------------------------------------------------------------------------|
B|------------------------------------------------------------------------------|
G|------------------------------------------------------------------------------|
D|--7-77-777777777777--5-55-555555555555--4-44-444444444444--3-33-333-3-33-333--|
A|--7-77-777777777777--5-55-555555555555--4-44-444444444444--3-33-333-3-33-333--|
E|--5-55-555555555555--3-33-333333333333--2-22-222222222222--1-11-111-1-11-111--|

e|------------------------------------------------------------------------------|
B|------------------------------------------------------------------------------|
G|------------------------------------------------------------------------------|
D|--3-33-333-3-33-333--3-33-333-3-33-333--3-33-333-3-33-333--2------------------|
A|--3-33-333-3-33-333--3-33-333-3-33-333--3-33-333-3-33-333--2------------------|
E|--1-11-111-1-11-111--1-11-111-1-11-111--1-11-111-1-11-111--0------------------|


Enjoy :-)
if you find anything wrong with the tab drop me an email, cheers!
Добавлено: 20.11.2013
Другие материалы по этой песне:
  • Аккорды и текст

Страница создана 20.11.2013
http://primanota.ru/bitch-alert/totally-out-there-chords.htm
Привет, Гость.
Предлагаем пройти революционный курс по гитаре.
Подарок от PrimaNota.Ru, забирай!