PrimaNota.ru - самый крупный в мире бесплатный архив песенных текстов, аккордов, табулатур и нот


Bitch Alert - Skeleton - таба, видео

Регистрация Запомнить меня
Войти через:  Facebook Google Twitter Vk Yandex Mail.ru

Bitch Alert - Skeleton - таба, видео

Печатать
Просмотров: 93
.--------------------------------------------.
| Artist        : Bitch Alert                |
| Album         : I Can Feel Your Bones      |
| Track         : Skeleton                   |
|--------------------------------------------|
| Tabbed by     : Ricky Thomson              |
| Date          : Tue 5th June 2012          |
| Contact Email : punkalert@gmail.com        |
'--------------------------------------------'

Tuning: standard

/ = slide up
\ = slide down


Order
 - intro   [x2]
 - verse   [x2] *
 - chorus  [x2]
 - verse   [x2] *
 - chorus  [x2]
 - bridge  [x4]
 - chorus  [x4]

* play these parts clean (no distortion)



[intro/chorus]

e|-----------------------------------------------------------------------------|
B|-----------------------------------------------------------------------------|
G|-------/14-14-14\-------/14-14-14\-------------------------------------------|
D|--7-7--/14-14-14\--7-7--/14-14-14\--7-7-7-7-7-7-7-7-10-10-10-10-12-12-12-12--|
A|--7-7--/12-12-12\--7-7--/12-12-12\--7-7-7-7-7-7-7-7-10-10-10-10-12-12-12-12--|
E|--5-5--------------5-5--------------5-5-5-5-5-5-5-5--8--8--8--8-10-10-10-10--|



[verse]

e|---------------------------------------------------|
B|---------------------------------------------------|
G|--10-10-10-10-10-10-10-10-10-10-10-10-10-10-10-10--|
D|--10-10-10-10-10-10-10-10-10-10-10-10-10-10-10-10--|
A|---8--8--8--8--8--8--8--8--8--8--8--8--8--8--8--8--|
E|---------------------------------------------------|

e|-----------------------------------|
B|-----------------------------------|
G|------------------9-9-9-9-9-9-9-9--|
D|--7-7-7-7-7-7-7-7-9-9-9-9-9-9-9-9--|
A|--7-7-7-7-7-7-7-7-7-7-7-7-7-7-7-7--|
E|--5-5-5-5-5-5-5-5------------------|

e|---------------------------------------------------|
B|---------------------------------------------------|
G|--10-10-10-10-10-10-10-10-10-10-10-10-10-10-10-10--|
D|--10-10-10-10-10-10-10-10-10-10-10-10-10-10-10-10--|
A|---8--8--8--8--8--8--8--8--8--8--8--8--8--8--8--8--|
E|---------------------------------------------------|

e|-----------------------------------|
B|-----------------------------------|
G|-----------------------------------|
D|--7-7-7-7-7-7-7-7-2-2-2-2-2-2-2-2--|
A|--7-7-7-7-7-7-7-7-2-2-2-2-2-2-2-2--|
E|--5-5-5-5-5-5-5-5-0-0-0-0-0-0-0-0--|



[bridge]

e|-----------------------------------|
B|-----------------------------------|
G|-----------------------------------|
D|--3-3-3-3-3-3-3-3-3-3-3-3-3-3-3-3--|
A|--3-3-3-3-3-3-3-3-3-3-3-3-3-3-3-3--|
E|--1-1-1-1-1-1-1-1-1-1-1-1-1-1-1-1--|

e|-----------------------------------|
B|-----------------------------------|
G|-----------------------------------|
D|--7-7-7-7-7-7-7-7-2-2-2-2-2-2-2-2--|
A|--7-7-7-7-7-7-7-7-2-2-2-2-2-2-2-2--|
E|--5-5-5-5-5-5-5-5-0-0-0-0-0-0-0-0--|




[riff]
(a second guitar plays this over the top of the chorus at the end of the song)

e|--5--5--5--5--5--5--5--5--5--5--5--5--8--8--10--10--|
B|----------------------------------------------------|
G|----------------------------------------------------|
D|----------------------------------------------------|
A|----------------------------------------------------|
E|----------------------------------------------------|

Have fun!
Добавлено: 25.11.2013
Другие материалы по этой песне:
  • Аккорды и текст

Страница создана 25.11.2013
http://primanota.ru/bitch-alert/skeleton-chords.htm
Привет, Гость.
Предлагаем пройти революционный курс по гитаре.
Подарок от PrimaNota.Ru, забирай!