PrimaNota.ru - самый крупный в мире бесплатный архив песенных текстов, аккордов, табулатур и нот


Bitch Alert - Sick Boy - таба, видео

Регистрация Запомнить меня
Войти через:  Facebook Google Twitter Vk Yandex Mail.ru

Bitch Alert - Sick Boy - таба, видео

Печатать
Просмотров: 87
--------------------------------------------------------------
Artist    :  Bitch Alert
Song      :  Sick Boy
Album     :  Pay For Orgasm
--------------------------------------------------------------
Tabbed By :  Ricky Thomson
Date      :  6th November 2012
Contact   :  punkalert@gmail.com
--------------------------------------------------------------

Tuning: standard


[verse]

e||-----------------------------------||
B||-----------------------------------||
G||--5-5-5-5-5-5-5-5-5-5-5-5-5--------||
D||--5-5-5-5-5-5-5-5-5-5-5-5-5-0-4-0--||
A||--3-3-3-3-3-3-3-3-3-3-3-3-3-0-4-0--||
E||----------------------------0-2-0--||

[bridge]

e||-----------------------------------||
B||-----------------------------------||
G||-----------------------------------||
D||--3-3-3-3-3-3-3-3-3-3-3-3-3-3-3-4--||
A||--3-3-3-3-3-3-3-3-3-3-3-3-3-3-3-4--||
E||--1-1-1-1-1-1-1-1-1-1-1-1-1-1-1-2--||


[chorus]

e||-----------------------------------------------------||
B||---------------------5------------3------------2-----||
G||--------4---------------5------------3------------2--||
D||-----------5------5------------3------------2--------||
A||-----5---------3------------1------------0-----------||
E||--3--------------------------------------------------||



verse  [x6]
bridge [x2]
verse  [x6]
bridge [x4]
chorus [x2] *
bridge [x2]
verse  [x6]
bridge [x4]
chorus [x4] *

* play these parts with a flanger effect
Добавлено: 04.12.2013
Другие материалы по этой песне:
  • Аккорды и текст

Страница создана 04.12.2013
http://primanota.ru/bitch-alert/sick-boy-chords.htm
Привет, Гость.
Предлагаем пройти революционный курс по гитаре.
Подарок от PrimaNota.Ru, забирай!