PrimaNota.ru - самый крупный в мире бесплатный архив песенных текстов, аккордов, табулатур и нот


Bitch Alert - Rockets - таба, видео

Регистрация Запомнить меня
Войти через:  Facebook Google Twitter Vk Yandex Mail.ru

Bitch Alert - Rockets - таба, видео

Печатать
Просмотров: 117
--------------------------------------------------------------
Artist    :  Bitch Alert
Song      :  Rockets
Album     :  ..rriot
--------------------------------------------------------------
Tabbed By :  Ricky Thomson
Date      :  9th January 2013
Contact   :  punkalert@gmail.com
--------------------------------------------------------------

Tuning: standard

/ = slide up
x = rake



[intro]

     A5
e||--------------------------||
B||--------------------------||
G||--------------------------||
D||--------------------------||
A||--x--x--x--x--x--x--x--x--||
E||--x--x--x--x--x--x--x--x--||

                          
[verse]
                        
e||-----------------------------------||
B||-----------------------------------||
G||-----------------------------------||
D||------------7-7-9-----------7-7-9--||
A||--7---7-6-6-0-0-0-7---7-6-6-0-0-0--||
E||--0---0-0-0-------0---0-0-0--------||


[fill]

   C#5        B5
e|---------------------------|
B|---------------------------|
G|---------------------------|
D|--6-6-6-6-6-6-4-4-4-4-4-4--|
A|--4-4-4-4-4-4-2-2-2-2-2-2--|
E|---------------------------|


[chorus]

     E5                 F#5                 C#5                B5
e||-----------------------------------------------------------------------------|
B||-----------------------------------------------------------------------------|
G||--9---9-9---9-9-9--9/11-11-11--11-11-11--6---6-6---6-6-6----4---4-4---4-4-4--|
A||--9---9-9---9-9-9--9/11-11-11--11-11-11--6---6-6---6-6-6----4---4-4---4-4-4--|
D||--7---7-7---7-7-7--7/-9--9--9---9--9--9--4---4-4---4-4-4----2---2-2---2-2-2--|
E||-----------------------------------------------------------------------------|


[bridge]

Guitar #1

     E5
e||-----------------------------------||
B||-----------------------------------||
G||--9-9-9-9-9-9-9-9-9-9-9-9-9-9-9-9--||
A||--9-9-9-9-9-9-9-9-9-9-9-9-9-9-9-9--||
D||--7-7-7-7-7-7-7-7-7-7-7-7-7-7-7-7--||
E||-----------------------------------||

Guitar #2
e||-----------------------------------||
B||-----------------------------------||
G||-----------------------------------||
D||------------7-7-9-----------7-7-9--||
A||--7---7-6-6-0-0-0-7---7-6-6-0-0-0--||
E||--0---0-0-0-------0---0-0-0--------||




Order:
 intro  [x2] *p
 verse  [x6]
 fill   
 verse  [x3]
 fill   
 verse  [x2]
 chorus [x4] *d
 verse  [x4] *d
 fill   
 verse  [x3]
 fill   
 verse  [x2]
 chorus [x4] *d
 bridge [x2] *d
 verse  [x2]

 
Effects:
*p = phaser
*d = distortion

 
End on this:
e||-------------------||
B||-------------------||
G||-------------------||
D||-------------------||
A||--7----------------||
E||--0----------------||
Добавлено: 19.11.2013
Другие материалы по этой песне:
  • Аккорды и текст

Страница создана 19.11.2013
http://primanota.ru/bitch-alert/rockets-chords.htm
Привет, Гость.
Предлагаем пройти революционный курс по гитаре.
Подарок от PrimaNota.Ru, забирай!