PrimaNota.ru - самый крупный в мире бесплатный архив песенных текстов, аккордов, табулатур и нот


Bitch Alert - My Boy - таба, видео

Регистрация Запомнить меня
Войти через:  Facebook Google Twitter Vk Yandex Mail.ru

Bitch Alert - My Boy - таба, видео

Печатать
Просмотров: 142
.-------------------------------------------.
| Artist        : Bitch Alert               |
| Album         : Kill Your Darlings        |
| Track         : My Boy                    |
|-------------------------------------------|
| Tabbed by     : Ricky Thomson             |
| Date          : Mon 14th May 2012         |
| Contact Email : punkalert@gmail.com       |
'-------------------------------------------'


Tuning: standard

/ = slide up
b = bend


[verse one]

    B                G         A
e|---------------------------------------|
B|---------------------------------------|
G|---------------------------------------|
D|--9------------999-5---------7---------|
A|--9------------999-5---------7---------|
E|--7------------777-3---------5---------|


    B                G         A
e|---------------------------------------|
B|---------------------------------------|
G|---------------------------------------|
D|--9------------999-5---------7---------|
A|--9------------999-5---------7---------|
E|--7------------777-3---------5---------|


    B                G         A
e|---------------------------------------|
B|---------------------------------------|
G|---------------------------------------|
D|--9--------9-9-999-5---------7---------|
A|--9--------9-9-999-5---------7---------|
E|--7--------7-7-777-3---------5---------|


    B                 G        A
e|---------------------------------------|
B|---------------------------------------|
G|---------------------------------------|
D|--9-9-9999-9-9-9999-5-5-5555-7-7-7777--|
A|--9-9-9999-9-9-9999-5-5-5555-7-7-7777--|
E|--7-7-7777-7-7-7777-3-3-3333-5-5-5555--|



[chorus]

     B     G     E     A
e||--------------------------||
B||--------------------------||
G||--------------------------||
D||--9-99--5555--2-22--7777--||
A||--9-99--5555--2-22--7777--||
E||--7-77--3333--0-00--5555--||



[riff]

e|------------------------------------------------------------|
B|------------------------------------------------------------|
G|------------------------------------------------------------|
D|--13-13-13b-13--13-13-13b-13--9b-9-9-9/11-11b-11--11-11-11--|
A|------------------------------------------------------------|
E|------------------------------------------------------------|



[verse two]

     B                 G        A
e||---------------------------------------||
B||---------------------------------------||
G||---------------------------------------|| 
D||--9-9-9999-9-9-9999-5-5-5555-7-7-7777--||
A||--9-9-9999-9-9-9999-5-5-5555-7-7-7777--||
E||--7-7-7777-7-7-7777-3-3-3333-5-5-5555--||



[solo]

e|------------------------------------------------------------------|
B|------------------------------------------------------------------|
G|------------------------------10b-10-10b-10-10--------------------|
D|--13-13-13b-13--13-13-13b-13--------------------11b-11-11b-11-11--|
A|------------------------------------------------------------------|
E|------------------------------------------------------------------|

e|------------------------------------------------------------------|
B|------------------------------------------------------------------|
G|------------------------------10b-10-10b-10-10--12b-12-12b-12-12--|
D|--13-13-13b-13--13-13-13b-13--------------------------------------|
A|------------------------------------------------------------------|
E|------------------------------------------------------------------|

(slowly enter/exit the bend parts while picking, not too sure how to 
write it out as a tab, but this should be a rough guide to get you
started.)


[outro]

    B
e|---------------------|
B|---------------------|
G|---------------------|
D|--999999999----------|
A|--999999999----------|
E|--777777777---7b-----|



Order:
 - verse one 
 - chorus [x4]
 - riff [x2]
 - verse two [x4]
 - chorus [x4]
 - solo
 - chorus [x4]
 - outro
 

If you find anything wrong with the tab send me an email, cheers! :P
Добавлено: 02.07.2013
Другие материалы по этой песне:
  • Аккорды и текст

Страница создана 02.07.2013
http://primanota.ru/bitch-alert/my-boy-chords.htm
Привет, Гость.
Предлагаем пройти революционный курс по гитаре.
Подарок от PrimaNota.Ru, забирай!