PrimaNota.ru - самый крупный в мире бесплатный архив песенных текстов, аккордов, табулатур и нот


Bitch Alert - Monday - таба, видео

Регистрация Запомнить меня
Войти через:  Facebook Google Twitter Vk Yandex Mail.ru

Bitch Alert - Monday - таба, видео

Печатать
Просмотров: 172
-----------------------------------------------------------------
	Band: Bitch Alert - www.bitchalert.org
	Song: Monday (..rriot album)
-----------------------------------------------------------------


(The main riff)

          A5 H5        A5 H5  A5
 e||-------------------------------||
 H||-------------------------------||
 G||-------------------------------||
 D||------7-999--------7-999-7-----||
 A||------7-999--------7-999-7-----||
 E||--0-0-5-777--0-0-0-5-777-5-----||


(C-part)

       E5     G5      A5    G5  A5 G5
 e||---------------------------------||
 H||---------------------------------||
 G||---------------------------------||
 D||--2-2-2--5-5-5--7-7-7-7-5-5-7-5--||
 A||--2-2-2--5-5-5--7-7-7-7-5-5-7-5--||
 E||--0-0-0--3-3-3--5-5-5-5-3-3-5-3--||

Добавлено: 06.07.2012
Другие материалы по этой песне:
  • Аккорды и текст

Страница создана 06.07.2012
http://primanota.ru/bitch-alert/monday-chords.htm
Привет, Гость.
Предлагаем пройти революционный курс по гитаре.
Подарок от PrimaNota.Ru, забирай!